Oops, an error
Loading. Please wait.

Light Up The Sky Tab

version 3
version 3

Whole song

2,282 views 21 this week
2 commentsread comments
1 2 3 4 5
excellent!
x 5
add to favorites
launch autoscroll
font size
0
reset
how to read this tab
guitar tuner
Tab Pro tools
  • play this tab
  • loop segment
  • change instrument
  • show fretboard
  • metronome
×
Best way to learn
"Light Up The Sky"
Autoscroll
slow
fast
+/-
esc
set tempo
stop
Contributor
Tuning
A E A D F# B
I originally tab this song out in Drop D (Version 2). So I took the time to tab it out 
in its proper tuning Drop A.

Please rate and comment on this awesome song! :)


Intro
-----------------------------------------------|
-----------------------------------------------|
-----------------------------------------------|
-----------------------------------------------|
------------------------------------------5/7--|
--7h99--7h99--9-9--7h99--7h99--7h99--977-------|
                .

Intro (Con...)
-----------------------------------------------|
-----------------------------------------------|
-----------------------------------------------|
-----------------------------------------------|
------------------------------------------7\5--|
--7h99--7h99--9-9--7h99--7h99--7h99--9-9-------|
                .                      .

Chorus
------------------------------------------------|
------------------------------------------------|
-------------------------------------------7/9--|
--7h99--7h999--9-9--7h99--7h99--7h99--7-9—-7/9--|
--7h99--7h999--9-9--7h99--7h99--7h99--7-9—-5/7--|
--7h99--7h999--9-9--7h99--7h99--7h99--7-9-------|

Chorus (Con...)
-------------------------------------------------|
-------------------------------------------------|
--------------------------------------------9\7--|
--7h99--7h999--9-9--7h99--7h99--7h99--9-77—-9\7--|
--7h99--7h999--9-9--7h99--7h99--7h99--9-77--7\5--|
--7h99--7h999--9-9--7h99--7h99--7h99--9-77-------|

Verse 1 [Come in for second half of verse] there is
various scratching pm's throughout
-----------------------------------------------------------|
-----------------------------------------------------------|
----------------------------------------11-9-7-------------|
--7-9-12-9-7-9--7-9-12-7-7-7-7--7-9-12----------7--7-9-12--|
----------------------------------------9--7-5-------------|
--7-9-12-9-7-9--7-9-12-7-7-7-7--7-9-12----------7--7-9-12--|
                       . . . .

Pre-Chorus The main part of the P-C is starching pm's (except the end)
While that is happening you could do what is in parenthesis.
---------------------------------------------------------------------|
---------------------------------------------------------------------|
---------------------------------------------------------------------|
-xxx--------(9-8-7)-----------xxxxx----------------------------------|
-xxx-[x18]--(9-8-7)--5-5-5-7--xxxxx----------------------------------|
-xxx--------(9-8-7)-----------xxxxx----------------------------------|
          {x18 for each}

Go back to:
Chorus
Verse 2
Pre-Chorus

Bridge
----------------------------------------------------------------------|
----------------------------------------------------------------------|
----------------------------------------------------------------------| (x2)
----------------------------------------------------------------------|
----------------------------------------------------------------------|
-7h99--7h9-7h9--0-2--7h99--7h9-7h9-0-7h99--7h9-7h9--0-2--0-2-0-2-0-12-|

Bridge (Con...)
----------------------------------------------------------------------|
----------------------------------------------------------------------|
----------------------------------------------------------------------|
--7-9-9-7-9-7-9-0-2--7-9-9-7-9-7-9-0--7-9-9-7-9-7-9-0-2--0-2-0-2-0-2--|
--7-9-9-7-9-7-9-0-2--7-9-9-7-9-7-9-0--7-9-9-7-9-7-9-0-2--0-2-0-2-0-2--|
--7-9-9-7-9-7-9-0-2--7-9-9-7-9-7-9-0--7-9-9-7-9-7-9-0-2--0-2-0-2-0-2--|


Post-Bridge [Minor variations in
beginning then the last part is...]
----------------------|
----------------------|
----------------------|
----------------xxxx--|
----------------xxxx--|
--5-7-7-7-7-7\--xxxx--|

Back to Chorus

Ending
-----------------------------------------------------|
-----------------------------------------------------|
-----------------------------------------------------|
--12-9-7-5-2--12-9-7-5-2-2-2--12-9-7-5-2--2-5-7-9-5--|
--12-9-7-5-2--12-9-7-5-2-2-2--12-9-7-5-2--2-5-7-9-5--|
--12-9-7-5-2--12-9-7-5-2-2-2--12-9-7-5-2--2-5-7-9-5--|
                                              .  .
comments
print report bad tab
2 comments total.
0 reply
damonfinegan2 wrote on May 15 2015, 12:37 pm

Why not just tab this in Drop B?

0 reply
dragonslayer834 wrote on July 8 2015, 12:17 am

Because of the open notes in the bridge I guess?

I want to post or [tab]
guest
You may want to rate the tab now too:
select rating
Please do not post tabs as comments. Select "correction" instead!