Oops, an error
Loading. Please wait.

Move Tab

version 2
version 2

Whole song

Interactive

5,985 views 6 this week
1 commentread comment
1 2 3 4 5
1 last vote to show rating
add to favorites
launch autoscroll
font size
0
reset
how to read this tab
guitar tuner
Autoscroll
slow
fast
+/-
esc
set tempo
stop
Help us to improve Ultimate-Guitar.com Take our survey!
×
Author
Difficulty
Tuning
intermediate
B F# B E G# C#
-----------------------------------------------------------------------------
                         Move - Thousand Foot Krutch
-----------------------------------------------------------------------------

Tabbed By: Max Andersen
E-Mail: metalhead_7075@yahoo.ca

Tunning: Drop-B

riff 1
db|--------------------------------------------------------------------|
Ab|--------------------------------------------------------------------|
E-|o-------------------------------------------------------------------|
B-|o-0-0-0-7-7-7-8x--0-0-0-8\7-7-7-0-0-0-10-10-10-8x-0-0-0-10h12-12-12-|
Gb|--------------------------------------------------------------------|
B-|--------------------------------------------------------------------|
     . . . . . .     . . .     . . . . . .  .  .     . . .       .  .

db|-----------------------------------------------------------------|
Ab|-----------------------------------------------------------------|
E-|----------------------------------------------------------------o|
B-|-0-0-0-7-7-7-8x--0-0-0-8\7-7-7-0-0-0-10-10-10-8x-0-0-0-7--------o|
Gb|---------------------------------------------------------8-8-8---|
B-|-----------------------------------------------------------------|
    . . . . . .     . . .     . . . . . .  .  .     . . .   . . .

riff 2
db|----------------------------------------------|
Ab|----------------------------------------------|
E-|o------------5x-5-5-7-7-----------------------|
B-|o-0--7-3-0x--5x-5-5-7-7-0-7-10--10-10-10-8-7--|
Gb|--0--7-3-0x--3x-3-3-5-5-0-7-10--10-10-10-8-7--|
B-|--0--7-3-0x-------------0-7-10--10-10-10-8-7--|
                                   .  .

riff 3
db|-----------------------------------------|
Ab|-----------------------------------------|
E-|------------5x-5-5-7-7------------10----o|
B-|-0--7-3-0x--5x-5-5-7-7-0-7-8--8-8-10-10-o|
Gb|-0--7-3-0x--3x-3-3-5-5-0-7-8--8-8-8--10--|
B-|-0--7-3-0x-------------0-7-8--8-8----10--|
                                 . .

riff 4
db|--------------------------------------------|
Ab|-------------------------------------10-----|
E-|------------5x-5-5-7-7---------------10-----|
B-|-0--7-3-0x--5x-5-5-7-7-0-7-10--10-10-8--10--|
Gb|-0--7-3-0x--3x-3-3-5-5-0-7-10--10-10----10--|
B-|-0--7-3-0x-------------0-7-10--10-10----10--|
                                  .  .

riff 5
db|-------------------------------------------------------------------|
Ab|-------------------------------------------------------------------|
E-|-------------------------------------------------------------------|
B-|-------------------------------------------------------------------|
Gb|-------------------------------------------------------------------|
B-|-0-0-0-7-7-7-8--0-0-0-8-8-7-7-0-0-0-10-10-10-8--000-0-10-12-12-12--|
    . . . . . . .  . . . . . . . . . . .  .  .  .  ... . .  .  .  . 

riff 6
db|-----------------------------------------------------------|
Ab|-----------------------------------------------------------|
E-|-----------------------------------------------------------|
B-|-----------------------------------------------------------|
Gb|------------------------------------------------8-7x--3-8x-|
B-|-0-0-0-7-7-7-8--0-0-0-8-8-7-7-0-0-0-10-10-10-8--8-7x--3-8x-|
    . . . . . . .  . . . . . . . . . . .  .  .  .           

riff 7
db|------------------------------------------------------------|
Ab|------------------------------------------------------------|
E-|------------------------------------------------------------|
B-|------------------------------------------------------------|
Gb|------------------------------------------------------------|
B-|-0-0-0-7-7-7-8--0-0-0-8-8-7-7-0-0-0-10-10-10-8--000-0-0-0-0-|
    . . . . . . .  . . . . . . . . . . .  .  .  .  ... . . . .          

riff 8
b-|----------------|
Ab|----------------|
E-|----------------|
B-|-0-0-0-7-7-7-8--|
Gb|----------------|
B-|----------------|
    . . . . . . 

riff 9
db|-----------------|
Ab|-----------------|
E-|-----------------|
B-|-0---------------|
Gb|-0--(let ring)---|
B-|-0---------------|

riff 10
db|-------------|
Ab|-------------|
E-|-------------|
B-|-------------|
Gb|-8-7x--3-8x--|
B-|-8-7x--3-8x--|

riff 11  (the scratch is a palm mute harmonic at the third fret)
db|------------------------------------------------------------|
Ab|------------------------------------------------------------|
E-|------------------------------------------------------------|
B-|------------------------------------------------------xxxx--|
Gb|------------------------------------------------------xxxx--|
B-|-0-0-0-7-7-7-8--0-0-0-8-8-7-7-0-0-0-10-10-10-8--000-0-xxxx--|
    . . . . . . .  . . . . . . . . . . .  .  .  .  ...        
          
riff 12
db|-------------------------------------|----------------------|
Ab|-------------------------------------|----------------------|
E-|-------------------------------------|-------(x2)-----------|
B-|-10-10-10-10-10-10-10-8--8-8-8-8-8-8-|----------------------|
Gb|-10-10-10-10-10-10-10-8--8-8-8-8-8-8-|----------------------|
B-|-10-10-10-10-10-10-10-8--8-8-8-8-8-8-|-0--0-0-13--0--0-0-12-|
                                               .          .  

riff 13
db|-----------------------------------------------|
Ab|-----------------------------------------------|
E-|-----------------------------------------------|
B-|-8--8-8-8x-8--8-8-8x-10-10-10-10-10-10-10-10---|
Gb|-8--8-8-8x-8--8-8-8x-10-10-10-10-10-10-10-10---|
B-|-8--8-8-8x-8--8-8-8x-10-10-10-10-10-10-10-10---|
       . .       . .     

riff 14
db|----------------------------------------------|
Ab|----------------------------------------------|
E-|----------------------------------------------|
B-|-8--8-8-8x-8--8-8-8x-12-12-12-12-10-10-10-10--|
Gb|-8--8-8-8x-8--8-8-8x-12-12-12-12-10-10-10-10--|
B-|-8--8-8-8x-8--8-8-8x-12-12-12-12-10-10-10-10--|
       . .       . .                       

riff 15
db|------------------------|
Ab|------------------------|
E-|------------<8-8-8>-----|
B-|-10----8----------------|
Gb|-10----8----------------|
B-|-10----8----------------|


Intro:
riff 1
riff 2
riff 3
verse 1:
riff 5
riff 6
riff 7
riff 8
Chorus:
riff 2
riff 3
riff 2
riff 4
Interlude:
riff 9
riff 10
Verse 2:
riff 5
riff 11
Play Chorus 
Bridge:
riff 13
riff 14
riff 16
Play Chorus


I didn't put how many times to repeat the different riffs, 
I just wrote down where they go so ya don't get confused.

| /  Slide up
| \  Slide down
| x  Mute Note
| .  Palm mute
| <> Harmonic

=============================================================================
Suggest correction
Give kudos to tab author, rate the tab!
1 2 3 4 5
comments
print report bad tab
1 comment total.
0 reply
breadtruck 244 Jun 15, 2011 07:31 AM

Seems like a great tab man, don't know why a few people have rated it down, but obviously they can't put the riffs in order themselves and need someone to lay it out in perfect order so they can understand.

guest
You may want to rate the tab now too:
select rating
Wanna post a correction for this tab? Suggest correction