Oops, an error
Loading. Please wait.

Move Tab

version 3
version 3

Whole song

Interactive

10,196 views 6 this week
7 commentsread comments
1 2 3 4 5
excellent!
x 11
add to favorites
launch autoscroll
font size
0
reset
how to read this tab
guitar tuner
Autoscroll
slow
fast
+/-
esc
set tempo
stop
Help us to improve Ultimate-Guitar.com Take our survey!
×
Author
Difficulty
intermediate
Move Tab by: Thousand Foot Krutch

Tab by: Aaron Meredith

Drop B tuning


. = palm-mute (pm)
h = hammer-on
p = pull-off
* = harmonic
/ = slide up
\ = slide down
x = play muted string



Intro:
C#|-----------------------------------------------------|
G#|-----------------------------------------------------|
E |-----------------------------555---------5h7-77------|
B |-----777-8-------8p7-77----------8-------------------|
F#|-555---------555---------555---------555-------------|
B |-----------------------------------------------------|
 Pm ... ... .   ... . . ..  ... ... .   ... . . ..

C#|-----------------------------------------------------|
G#|-----------------------------------------------------|
E |-----------------------------555---------------------|
B |-----777-8-------8p7-77----------8-------7-----------|
F#|-555---------555---------555---------555---888-------|
B |-----------------------------------------------------|
 Pm ... ... .   ... . . ..  ... ... .   ... . ...



Chorus:
C#|---------------------------------------------|
G#|---------------------------------------------|
E |---------5-55/7-7----------------------------|
B |-0-7-3-0-5-55/7-7-000-777-10--0-10--8--7-----|
F#|-0-7-3-0-3-33/5-5-000-777-10--0-10--8--7-----|
B |-0-7-3-0----------000-777-10--0-10--8--7-----|

C#|-----------------------------------------|
G#|-----------------------------------------|
E |---------5-55/7-7------------10----------|
B |-0-7-3-0-5-55/7-7-000-777-8--10--10-10---|
F#|-0-7-3-0-3-33/5-5-000-777-8---8--10-10---|
B |-0-7-3-0----------000-777-8------10-10---|




Verse:
C#|-----------------------------------------------------|
G#|-----------------------------------------------------|
E |-----------------------------------------------------|
B |-----------------------------------------------------|
F#|-----------------------------------------------------|
B |-000-777-8-000-88-77-000-101010-8-000-10p12-1212-----|
 pm ... ... . ... .. .. ... ...... . ... .. .. ...

C#|------------------------------------------------------|
G#|------------------------------------------------------|
E |------------------------------------------------------|
B |----------------------------------------12-7--0-8-----|
F#|----------------------------------------12-7--0-8-----|
B |-000-777-8-000-88-77-000-101010-8-xxx---12-7--0-8-----|
 pm ... ... . ... .. .. ... ...... . ... 

C#|-----------------------------------------------------|
G#|-----------------------------------------------------|
E |-----------------------------------------------------|
B |-----------------------------------------------------|
F#|-----------------------------------------------------|
B |-000-777-8-000-88-77-000-101010-8-000-10p12-1212-----|
 pm ... ... . ... .. .. ... ...... . ... .. .. ...

C#|------------------------------------------------------------|
G#|------------------------------------------------------------|
E |------------------------------------------------------------|
B |--------------------------------------------------777-8-----|
F#|----------------------------------------------555-----------|
B |-000-777-8-000-88-77-000-101010-8-000-7-3-0-----------------|
 pm ... ... . ... .. .. ... ...... . ... . . .   ... ... .

REPEAT CHORUS: x2

REPEAT VERSE: (first part just vocals)

REPEAT CHORUS: x2

Bridge:
C#|------------------------------------------------------------| 
G#|------------------------------------------------------------|
E |-5-555555-3-3333333-----------------------------------------|x2
B |-5-555555-3-3333333--0--------0--------0-------0------------|
F#|-3-333333-1-1111111--0-----6--0-----5--0-----6-0-----5------|
B |---------------------0-0-0----0-0-0----0-0-0---0-0-0--------|
                          . .      . .      . .     . .

C#|------------------------------------------------------------------------
G#|------------------------------------------------------------------------
E |-3~xx-33~xx-3~5~5~5~5~-3-xx-33-xx-3-7~7~5~5~--3~xx-33~xx-3~5~5~5~5~-5~--
B |-3~xx-33~xx-3~5~5~5~5~-3-xx-33-xx-3-7~7~5~5~--3~xx-33~xx-3~5~5~5~5~-5~--
F#|-1~xx-11~xx-1~3~3~3~3~-1-xx-11-xx-1-5~5~3~3~--1~xx-11~xx-1~3~3~3~3~-3~--
B |------------------------------------------------------------------------
    


C# -----------------------|
G# -----------------------|
E  --3~-------------------|
B  --3~----5*-5*-5*-------|
F# --1~-------------------|
B  -----------------------|


Bridge: Guitar 2 (second time through include last note)
C#|--15----15----15----15--13------12\10-10\8------17------|-17-----|
G#|-----13----13----13---------11-----------------------15-|--------|
E |--------------------------------------------------------|--------|x2
B |--------------------------------------------------------|--------|
F#|--------------------------------------------------------|--------|
B |--------------------------------------------------------|--------|


C#|------17-------------17-------------13--12-------13--12---------|
G#|--15------18-----15------18-----13-----------13-----------------|
E |----------------------------------------------------------------|
B |----------------------------------------------------------------|
F#|----------------------------------------------------------------|
B |----------------------------------------------------------------|

C#|------17-------------17-------------17-------------20--17-------|
G#|--15------18-------------18-----15------18-----15---------------|
E |-----------------15---------------------------------------------|
B |----------------------------------------------------------------|
F#|----------------------------------------------------------------|
B |----------------------------------------------------------------|

C#|------17-------------17-------------13--12---------13--12-------|
G#|--15------18-------------18-----13-------------13---------------|
E |-----------------15---------------------------------------------|
B |----------------------------------------------------------------|
F#|----------------------------------------------------------------|
B |----------------------------------------------------------------|




REPEAT CHORUS: (x2)

Suggest correction
comments
print report bad tab
7 comments total. Showing first comments. show 1 bad comment
0 reply
sumguy67 103 wrote on December 26 2006, 08:45 pm

pretty good tab. wish it had the lead in the chorus though.

0 reply
aron444 708 wrote on December 27 2006, 05:02 pm

Was evewrything else correct. If so shouldn't it be a 5. Leads are optional right??? Just wondering if that was the only reason you gave it a 4. I will have to listen to see why I didn't tab out this lead you are talking about.

A

guest
You may want to rate the tab now too:
select rating
Wanna post a correction for this tab? Suggest correction