Oops, an error
Loading. Please wait.

My Home Bass Tab

version 1
version 1

Whole song

Interactive

990 views 1 this week
no commentswrite comment
1 2 3 4 5
please rate
add to favorites
launch autoscroll
font size
0
reset
guitar tuner
Tab Pro tools
  • play this tab
  • loop segment
  • change instrument
  • show fretboard
  • metronome
×
Best way to learn
"My Home"
Autoscroll
slow
fast
+/-
esc
set tempo
stop
Contributor
Tuning
D A D G B E
-------------------------------------------------------------------------------
		      My Home - Thousand Foot Krutch
-------------------------------------------------------------------------------

Tuning: Drop D

Intro/Verse
G|--------------------------------------|
D|--------------------------------------| x2
A|-----------------------------5---5-5--|
D|--7---7-7--3---3-3--5---5-5-----------|

G|---------------------------------------|
D|---------------------------------------| 
A|-----------------------------5~----5~--|
D|--7---7-7--3---3-3--5---5-5------------|

Pre-Chorus
G|-----------------------------------|
D|-----------------------------------| 
A|--3-3-3-3-3-3-3-3------------------|
D|------------------5-5-5-5-5-5-5-5--|

G|-----------------------------------|
D|-----------------------------------| 
A|--5-5-5-5-5-5-5-5------------------|
D|------------------5-5-5-5-5-5-5-5--|

G|-----------------------------------|
D|-----------------------------------| 
A|--3-3-3-3-3-3-3-3------------------|
D|------------------5-5-5-5-5-5-5-5--|

G|-----------------------------------|
D|-----------------------------------| 
A|--5-5-5-5-5-5-5-5------------------|
D|------------------7-7-7-7-7-7-7-7--|

Chorus
G|-------------------------------------------------------------------|
D|-------------------------------------------------------------------| x2
A|--3-3-3-3-3-3-3-3--------------------------------------------------|
D|------------------5-5-5-5-5-5-5-5-7-7-7-7-7-7-7-7-3-3-3-3-3-3-3-3--|

Verse
G|--------------------------------------|
D|--------------------------------------| x3
A|-----------------------------5---5-5--|
D|--7---7-7--3---3-3--5---5-5-----------|

G|---------------------------------------|
D|---------------------------------------| 
A|-----------------------------5~----5~--|
D|--7---7-7--3---3-3--5---5-5------------|

Pre-Chorus
G|-----------------------------------|
D|-----------------------------------| 
A|--3-3-3-3-3-3-3-3------------------|
D|------------------5-5-5-5-5-5-5-5--|

G|-----------------------------------|
D|-----------------------------------| 
A|--5-5-5-5-5-5-5-5------------------|
D|------------------5-5-5-5-5-5-5-5--|

G|-----------------------------------|
D|-----------------------------------| 
A|--3-3-3-3-3-3-3-3------------------|
D|------------------5-5-5-5-5-5-5-5--|

G|-----------------------------------|
D|-----------------------------------| 
A|--5-5-5-5-5-5-5-5------------------|
D|------------------7-7-7-7-7-7-7-7--|

Chorus/Bridge
G|-------------------------------------------------------------------|
D|-------------------------------------------------------------------| x6
A|--3-3-3-3-3-3-3-3--------------------------------------------------|
D|------------------5-5-5-5-5-5-5-5-7-7-7-7-7-7-7-7-3-3-3-3-3-3-3-3--|

~Break~

G|------------------------------------------|
D|------------------------------------------|
A|--3----3-3--------------------------------|
D|------------5----5-5--7----7-7--3----3-3--|

G|-------------------------------------------------------------------|
D|-------------------------------------------------------------------| x2
A|--3-3-3-3-3-3-3-3--------------------------------------------------|
D|------------------5-5-5-5-5-5-5-5-7-7-7-7-7-7-7-7-3-3-3-3-3-3-3-3--|

G|------|
D|------|
A|--3~--|
D|------|

Yea you can probably play it in standard tuning but it sounds better in 
Drop D. Peace :P



| /  slide up
| \  slide down
| h  hammer-on
| p  pull-off
| ~  let note ring
| +  harmonic
| x  Mute note
===============================================================================

comments
We did not receive enough feedback on this tab! Please rate:
print report bad tab
1 2 3 4 5
I want to post or [tab]
guest
You may want to rate the tab now too:
select rating
Please do not post tabs as comments. Select "correction" instead!