Oops, an error
Loading. Please wait.

My Home Tab

version 1
version 1

Whole song

Interactive

4,342 views 9 this week
no commentswrite comment
1 2 3 4 5
please rate
add to favorites
launch autoscroll
font size
0
reset
how to read this tab
guitar tuner
Autoscroll
slow
fast
+/-
esc
set tempo
stop
Help us to improve Ultimate-Guitar.com Take our survey!
×
Author
Difficulty
Tuning
novice
C G C F A D
Thousand Foot Krutch-My Home
Album-The Flame In All Of Us
Tabbed by: overflowme/schecter777
Email: strummer99@cox.net

Gtr. 1 “distortion” (C-G-C-F-A-D)
Gtr. 2 “distortion” (C-G-C-F-A-D)
Gtr. 3 “clean”      (C-G-C-F-A-D)

Intro
Gtr. 3
[-------------------------------------------------------------------]
[-------------------------------------------------------------------]
[-------------------------------------------------------------------]
[----4-2-4---4-2-4--------------------------------------------------]
[--2-------2---------5-7-5---5-7-5---5-7-5---5-7-5---7-7-7---7-7-7--]
[------------------5-------5-------4-------4-------7-------7--------]

Verse 1
Gtr. 3
[-------------------------------------------------------------------]2x
[-------------------------------------------------------------------]
[-------------------------------------------------------------------]
[----4-2-4---4-2-4--------------------------------------------------]
[--2-------2---------5-7-5---5-7-5---5-7-5---5-7-5---7-7-7---7-7-7--]
[------------------5-------5-------4-------4-------7-------7--------]

Pre-Chorus
Gtr. 3
[------0~~--------------------------------]
[----------------------3~~----------------]
[----7------------------------------------]
[--7-----------4~~---4---------7~-----7~--]
[------------2-----2---------5------7-----]
[----------2---------------5------7-------]

[------0~~--------------------------------]
[-----------------------------------------]
[----7------------------------------------]
[--7-----------4~~-----7~~-----9~-----7~--]
[------------2-------5-------9------7-----]
[----------2-------5-------9------7-------]

Chorus
Gtr. 1 (2x)
[---------------------------------------------------]
[--14-14-------14-14----14-14-14-------14-14-15-15--]
[--------14-14-------14----------14-14--------------]
[---------------------------------------------------]
[---------------------------------------------------]
[---------------------------------------------------]

[---------------------------------------------------]
[--14-14-------14-14-15-19-19-19-15-15-14-14-15-15--]
[--------14-14--------------------------------------]
[---------------------------------------------------]
[---------------------------------------------------]
[---------------------------------------------------]

Gtr. 2
[-------------------------------------------------------------------]
[-------------------------------------------------------------------]
[-------------------------------------------------------------------]
[--0-0-0-0-0-0-0-0-7-7-7-7-7-7-7-7-9-9-9-9-9-9-9-9-5-5-5-5-5-5-5-5--]
[--0-0-0-0-0-0-0-0-7-7-7-7-7-7-7-7-9-9-9-9-9-9-9-9-5-5-5-5-5-5-5-5--]
[--0-0-0-0-0-0-0-0-7-7-7-7-7-7-7-7-9-9-9-9-9-9-9-9-5-5-5-5-5-5-5-5--]

Then, Gtr. 1 (2x)
[---------------------------------------------------]
[--14-14-------14-14----14-14-14-------14-14-15-15--]
[---x--x-14-14--x--x-14--x--x--x-14-14--x--x--x--x--]
[--11-11--x--x-11-11--x-11-11-11--x--x-11-11-12-12--]
[--------12-12-------12----------12-12--------------]
[---------------------------------------------------]

[---------------------------------------------------]
[--14-14-------14-14-15-19-19-19-15-15-14-14-15-15--]
[---x--x-14-14--x--x--x--x--x--x--x--x--x--x--x--x--]
[--11-11--x--x-11-11-12-16-16-16-12-12-11-11-12-12--]
[--------12-12--------------------------------------]
[---------------------------------------------------]

Gtr. 2
[-------------------------------------------------------------------]
[-------------------------------------------------------------------]
[-------------------------------------------------------------------]
[--0-0-0-0-0-0-0-0-2-2-2-2-2-2-2-2-9-9-9-9-9-9-9-9-5-5-5-5-7-7-7-7--]
[--0-0-0-0-0-0-0-0-2-2-2-2-2-2-2-2-9-9-9-9-9-9-9-9-5-5-5-5-7-7-7-7--]
[--0-0-0-0-0-0-0-0-2-2-2-2-2-2-2-2-9-9-9-9-9-9-9-9-5-5-5-5-7-7-7-7--]

Post-Chorus
Gtr. 1
[--0~~~~~--]
[--0~~~~~--]
[----------]
[----------]
[----------]
[----------]

Gtr. 3
[-------------------------------------------------------------------]
[-------------------------------------------------------------------]
[-------------------------------------------------------------------]
[----4-2-4---4-2-4--------------------------------------------------]
[--2-------2---------5-7-5---5-7-5---5-7-5---5-7-5---7-7-7---7-7-7--]
[------------------5-------5-------4-------4-------7-------7--------]

(Verse 1)

(Pre-Chorus)

(Chorus) 2x

Bridge (pause, then)
Gtr. 2
[-------------------------------------------------------------------]
[-------------------------------------------------------------------]
[-------------------------------------------------------------------]
[--0-0-0-0-0-0-0-0-2-2-2-2-2-2-2-2-9-9-9-9-9-9-9-9-5-5-5-5-7-7-7-7--]
[--0-0-0-0-0-0-0-0-2-2-2-2-2-2-2-2-9-9-9-9-9-9-9-9-5-5-5-5-7-7-7-7--]
[--0-0-0-0-0-0-0-0-2-2-2-2-2-2-2-2-9-9-9-9-9-9-9-9-5-5-5-5-7-7-7-7--]

(Chorus)

End on
Gtr. 1
[--0~~~~~--]
[--3~~~~~--]
[--2~~~~~--]
[----------]
[----------]
[----------]

Gtr. 2
[----------]
[----------]
[----------]
[--0~~~~~--]
[--0~~~~~--]
[--0~~~~~--]
Suggest correction new What's this?
You can suggest a correction to this tab. Community and Mods will review your correction and vote to approve or reject it.
comments
We did not receive enough feedback on this tab! Please rate:
print report bad tab
1 2 3 4 5
guest
You may want to rate the tab now too:
select rating
Please do not post tabs as comments. Select "correction" instead!