Oops, an error
Loading. Please wait.

My Own Enemy Bass Tab

1,100 views 1 this week
no commentswrite comment
1 2 3 4 5
please rate
add to favorites
launch autoscroll
font size
0
reset
guitar tuner
Autoscroll
slow
fast
+/-
esc
set tempo
stop
Help us to improve Ultimate-Guitar.com Take our survey!
×
Author
My own Enemy - Tousand Foot Krutch
This is my favorite track on the flame in all of us and the bass has a decent 
volume so here you go

Tuning - Drop B (BF#BE)
Guitar intro

  Guitar intro ending in () the bas play without the ()
|----------------|
|--(0-x-0)-------|
|--(0-x-0)-------|
|--(0-x-0)--3-2--|

|------------------------------------------------|
|---------3-2---------3-2---------3-2------------|x4
|------------------------------------------------|
|--0-x-0-------0-x-0-------0-x-0-------0-x-0--3-2|

Pre-chorus
|-------------------------------------------|
|-------------------------------------------|
|---------------------------------------(x2)|
|-77777777-55555555-33333333-2222-0000------|

Chorus
|-------------------------------------|
|---------------------------------(x4)|
|-0-00----------------1-11-1-11-------|
|------3-33-3-33-0-00-----------------|

Outro
|--------------------------------------------------------------------------|
|--------------------------------------------------------------------------|
|--------------------------------------------------------------------------|
|-0-xx-0-2--0-xx-0-2-3--0-xx-0-2222--0-x-0-0-2--0-x-0-3-2------------------|

The song easy to play once you get the rhythm of it
If anybody has any comments send me a mesage
Suggest correction
Give kudos to tab author, rate the tab!
1 2 3 4 5
comments
print report bad tab
guest
You may want to rate the tab now too:
select rating
Please do not post tabs as comments. Select "correction" instead!