Oops, an error
Loading. Please wait.

New Design Tab

version 2
version 2

Whole song

2,797 views 1 this week
no commentswrite comment
1 2 3 4 5
excellent!
x 6
add to favorites
launch autoscroll
font size
0
reset
how to read this tab
guitar tuner
Tab Pro tools
  • play this tab
  • loop segment
  • change instrument
  • show fretboard
  • metronome
×
Best way to learn
"New Design"
Autoscroll
slow
fast
+/-
esc
set tempo
stop
Contributor
Difficulty
Tuning
novice
D A D G B E
-------------------------------------------------------------------------------
                             New Design - Thousand Foot Krutch
-------------------------------------------------------------------------------

Tabbed by: Tyler Bledsoe

Tuning: Drop D

  Verse 1
e|---------------------------------------------------------------------------|
B|---------------------------------------------------------------------------|
G|---------------------------------------------------------------------------|
D|---------------------------------------------------------------------------|
A|-8---8-8-8-7---7-7-3-0---0-0-0-0---0-0-0-8---8-8-8-7---7-7-3-0---0-0-0-0---|
D|-8---8-8-8-7---7-7-3-0---0-0-0-0---0-0-0-8---8-8-8-7---7-7-3-0---0-0-0-0---|
  p.m. - - - -   - -   -   - - - -   - - - -   - - - -   - -   -   - - - -

e|---------------------------------------------------------------------------|
B|---------------------------------------------------------------------------|
G|---------------------------------------------------------------------------|
D|---------------------------------------------------------------------------|
A|-0-0-0--88888888777777730---0-0-0-0---0-0-0--88888888777777730---0-0-0-0---|
D|-0-0-0--88888888777777730---0-0-0-0---0-0-0--88888888777777730---0-0-0-0---|
 p.m.---  --------------- -   - - - -   - - -  --------------- -   - - - - 


  Chorus x2
e|---------------------------------------------------------------------------|
B|---------------------------------------------------------------------------|
G|---------------------------------------------------------------------------|
D|--------------------------------------5/7----------------5/7---------------|
A|-8\---1--1----3---6--6---0-0--8-7-3-0-3/5---0-0--8-7-3-0-3/5---------------|
D|-8\---1--1----3---6--6---0-0--8-7-3-0-------0-0--8-7-3-0-------------------|
  

e|---------------------------------------------------------------------------|
B|---------------------------------------------------------------------------|
G|---------------------------------------------------------------------------|
D|-----------------------------------------5/7----------------5/7------------|
A|-888888881010101010101010---0-0--8-7-3-0-3/5---0-0--8-7-3-0-3/5------------|
D|-888888881010101010101010---0-0--8-7-3-0-------0-0--8-7-3-0----------------|


  Verse 2
e|---------------------------------------------------------------------------|
B|---------------------------------------------------------------------------|
G|---------------------------------------------------------------------------|
D|---------------------------------------------------------------------------|
A|-8---8-8-8-7---7-7-3-0---0-0-0-0---0-0-0-8---8-8-8-7---7-7-3-0---0-0-0-0---|
D|-8---8-8-8-7---7-7-3-0---0-0-0-0---0-0-0-8---8-8-8-7---7-7-3-0---0-0-0-0---|

e|---------------------------------------------------------------------------|
B|---------------------------------------------------------------------------|
G|------10101010101010109999999----------------------10101010101010109999999-|
D|------x-x-x-x-x-x-x-x-xxxxxxx----------------------x-x-x-x-x-x-x-x-xxxxxxx-|
A|0-0-0-8-8-8-8-8-8-8-8-7777777-3----0-0-0-0---0-0-0-8-8-8-8-8-8-8-8-7777777-|
D|0-0-0-------------------------3----0-0-0-0---0-0-0-------------------------|

e|---------------------------------------------------------------------------|
B|---------------------------------------------------------------------------|
G|---------------------------------------------------------------------------|
D|---------------------------------------------------------------------------|
A|-3-0---0-0-0-0-------------------------------------------------------------|
D|-3-0---0-0-0-0-------------------------------------------------------------|



  -Chorus-


  Breakdown
e|---------------------------------------------------------------------------|
B|---------------------------------------------------------------------------|
G|---------------------------------------------------------------------------|
D|---------------------------------------------------------------------------|
A|-------xx-------xx-----3--------xx-------xx-----3--------xx-------xx-----3-|
D|-0h1-0-xx-0h1-0-xx-0h1----0h1-0-xx-0h1-0-xx-0h1----0h1-0-xx-0h1-0-xx-0h1---|

e|---------------------------------------------------------------------------|
B|---------------------------------------------------------------------------|
G|---------------------------------------------------------------------------|
D|---------------------------------------------------------------------------|
A|-------xx-----------0h1-0--0h1-0--0h1-3---0h1-0--0h1-0--0h1-3--0h1-0--0h1-0|
D|-0h1-0-xx-0h1-0-----0h1-0--0h1-0--0h1-----0h1-0--0h1-0--0h1----0h1-0--0h1-0|

e|---------------------------------------------------------------------------|
B|---------------------------------------------------------------------------|
G|---------------------------------------------------------------------------|
D|---------------------------------------------------------------------------|
A|-0h1-3--0h1-0--0h1-0--0h1-3---0h1-0--0h1-0--0h1-3---0h1-0--0h1-0--0h1-3----|
D|-0h1----0h1-0--0h1-0--0h1-----0h1-0--0h1-0--0h1-----0h1-0--0h1-0--0h1------|

e|---------------------------------------------------------------------------|
B|---------------------------------------------------------------------------|
G|---------------------------------------------------------------------------|
D|---------------------------------------------------------------------------|
A|-0h1-0--0h1-0--0h1-3---0h1-0--0h1-0--0h1-3----0h1-0-00-0h1-00-0h1-3--------|
D|-0h1-0--0h1-0--0h1-----0h1-0--0h1-0--0h1------0h1-0-00-0h1-00-0h1----------|

e|---------------------------------------------------------------------------|
B|---------------------------------------------------------------------------|
G|---------------------------------------------------------------------------|
D|---------------------------------------------------------------------------|
A|-0h1-0-00-0h1-00-0h1-3--0h1-0-00-0h1-00-0h1-3--0h1-0-00-0h1-00-0h1-3-------|
D|-0h1-0-00-0h1-00-0h1----0h1-0-00-0h1-00-0h1----0h1-0-00-0h1-00-0h1---------|


 Last Chorus (play w/ clean sound for these notes, then come back in w/ dist.)
e|---------------------------------------------------------------------------|
B|---------------------------------------------------------------------------|
G|---------------------------------------------------------------------------|
D|---------------------------------------------------------------------------|
A|-8\---1--1---3----6---6----------------------------------------------------|
D|-8\---1--1---3----6---6----------------------------------------------------|


  Outro
e|---------------------------------------------------------------------------|
B|---------------------------------------------------------------------------|
G|---------------------------------------------------------------------------|
D|--------------7/9---------------7/9---------------------------------7/9----|
A|-0-0--8-7-3-0-5/7--0-0--8-7-3-0-5/7--0-0--0-3-5-5-7-0--0-0--8-7-3-0-5/7----|
D|-0-0--8-7-3-0------0-0--8-7-3-0------0-0--0-3-5-5-7-0--0-0--8-7-3-0--------|




************************************

| /   slide up
| \   slide down
| h   hammer-on
| p   pull-off
| ~   vibrato
| +   harmonic
| x   Mute note
| b   Bend
| pb  Pre-bend
| br  Bend release
| pbr Pre-bend release
| brb Bend release bend

************************************
comments
print report bad tab
I want to post or [tab]
guest
You may want to rate the tab now too:
select rating
Please do not post tabs as comments. Select "correction" instead!