Oops, an error
Loading. Please wait.

Ordinary Tab

version 1
version 1

Whole song

2,525 views 1 this week
no commentswrite comment
1 2 3 4 5
please rate
add to favorites
launch autoscroll
font size
0
reset
how to read this tab
guitar tuner
Tab Pro tools
  • play this tab
  • loop segment
  • change instrument
  • show fretboard
  • metronome
×
Best way to learn
"Ordinary"
Autoscroll
slow
fast
+/-
esc
set tempo
stop
Contributor
----------------------------------------------------------------------------
                             Ordinary - Thousand Foot Krutch
----------------------------------------------------------------------------
Tabbed by: Max Andersen
Email: stupid_guitfiddlist@hotmail.com
Comments: This tab should be faitly acurate.
Key:
| /  slide up
| \  slide down
| x  Mute note
| .  Palm mute
Tuning: Drop-D

riff 1     (note: "x" means to mute stings just before next chord)
e|---------------------------------------------|
B|---------------------------------------------|
G|-7--x5-------------5/7-7--x5-----------------|
D|-7--x5--x5---5-----5/7-7--x5--x2---------5---|
A|-5--x3--x3------3--3/5-5--x3--x2-----------3-|
D|--------x3--------------------x2--2/3-3------|

riff 2
e|--------------------------|
B|--------------------------|
G|--------------------------|
D|--------------------------|
A|-3-2-1-0--3-2-1-0--3-2-0--|
D|-3-2-1-0--3-2-1-0--3-2-0--|

riff 3
e|--------------------|
B|--------------------|
G|-10-10-10-10-9-9-x5-|
D|-x--x--x--x--x-x-xx-|
A|-8--8--8--8--7-7-x3-|
D|--------------------|

riff 4
e|-----------------------------------------------------------------------|
b|-----------------------------------------------------------------------|
G|-----------------------------------------------------------------------|
D|-----------------------------------------------------------------------|
A|---------------------7----------------------8----------------------7---|
D|-000-0--000-0--000-0-7--000-0--000-0--000-0-8--000-0--000-0--000-0-7---|
   ... .  ... .  ... .    ... .  ... .  ... .    ... .  ... .  ... .

cont.
e|---------------------------|
B|---------------------------|
G|---------------------------|
D|---------------------------|
A|---------------0-0-3-2-1-1-|
D|-000-0--000-0--0-0-3-2-1-1-|
   ... .  ... .  . .

riff 5
e|----------------------------------------------------------------|
B|----------------------------------------------------------------|
G|----------------------------------------------------------------|
D|----------------------------------------------------------------|
A|-0--7--0--7-3-0--7/8-0-0-0-0-8-7-5-7--0--7--0--7-3-0--7/8-0x-0x-|
D|-0--7--0--7-3-0--7/8-0-0-0-0-8-7-5-7--0--7--0--7-3-0--7/8-0x-0x-|
                       . . . . 

riff 6
e|-----------------------------------|
B|-----------------------------------|
G|-7--x5-------------5/7-7--x5-------|
D|-7--x5--x5---5-----5/7-7--x5--x2---|
A|-5--x3--x3------3--3/5-5--x3--x2---|
D|--------x3--------------------x2---|

riff 7
e|------------------------------------------------------------------------|
B|------------------------------------------------------------------------|
G|-----------5-------5-5-5-5-5/7-7------------5---------------------------|
D|-----------5----5--5-5-5-5-5/7-7------------5---------------------------|
A|-0-0-0-0x--3--0-3--3-3-3-3-3/5-5--0-0-0-0x--3--5-2--0-0-3--0-0-3--0-0-3-|
D|-0-0-0-0x-----0-3--3-3-3-3-3/5-5--0-0-0-0x-----5-2--0-0-3--0-0-3--0-0-3-|
     . .        .                     . .             . .    . .    . .   
 
riff 8
e|---------------------------------------------------------------|
B|---------------------------------------------------------------|
G|---------------------------------------------------------------|
D|------------------5555555555555555------------------8x-7x--0-8-|
A|-0000000000000000-3333333333333333-5555555555555555-8x-7x--0-8-|
D|-0000000000000000------------------5555555555555555-8x-7x--0-8-|
   ................ ................ ................        .

riff 9
e|--------------------------------------------------------------------|
B|--------------------------------------------------------------------|
G|--------------------------------------------------------------------|
D|-----------------3-3-3-3-3-3-3-3------------------------------------|
A|-0-0-0-0-0-0-0-0-3-3-3-3-3-3-3-3-5-5-5-5-5-5-5-5-8-8-8-8-7-7-7-8\7--|
D|-0-0-0-0-0-0-0-0-----------------5-5-5-5-5-5-5-5-8-8-8-8-7-7-7-8\7--|
                                                             . .
riff 10
e|--------------------------|
B|--------------------------|
G|--------------------------|
D|--------------------------|
A|-3-2-1-0--3-2-1-0--3-2-0--|
D|-3-2-1-0--3-2-1-0--3-2-0--|
                     . . .

Intro:
riff 1
riff 2 x2
riff 3
Verse 1:
riff 4
Chorus 1:
riff 5
Bridge:
riff 2 x2
Verse 2:
riff 4
Chorus 2:
riff 5 x2
Interlude:
riff 6
riff 1
riff 7
riff 8
Chorus 3:
riff 4 x2 (on second repeat only play last chord once)
riff 9 x2
Outro:
riff 2 x2
riff 10

Thats all.
============================================================================
comments
We did not receive enough feedback on this tab! Please rate:
print report bad tab
1 2 3 4 5
I want to post or [tab]
guest
You may want to rate the tab now too:
select rating
Please do not post tabs as comments. Select "correction" instead!