Oops, an error
Loading. Please wait.

Ordinary Tab

version 2
version 2

Whole song

581 views 1 this week
no commentswrite comment
1 2 3 4 5
accurate
x 3
add to favorites
launch autoscroll
font size
0
reset
how to read this tab
guitar tuner
Autoscroll
slow
fast
+/-
esc
set tempo
stop
Help us to improve Ultimate-Guitar.com Take our survey!
×
Author
One of the bands that are on the top of my list of the greatest
bands ever. Great song and great album. Have Fun!!!!!!!!

Tuning: D a d g b e

Intro
E|---------------------------------------------------------||
B|---------------------------------------------------------||
G|--------------------0-------------------------------0----||
D|--------5---------------------------5--------------------||
A|-0-00-0-3-----3---------3----0-00-0-3-----2----2-23-----3||
D|-0-00-0-------3--------------0-00-0-------2----2-23------||

Main Riff
E|-------------------------------------------------------||
B|-------------------------------------------------------||
G|-------------------------------------------------------||
D|-3-2-0-0----3-2-0-0--3-2-0--3-2-0-0----3-2-0-0--3-2-0--||
A|-3-2-0-0----3-2-0-0--3-2-0--3-2-0-0----3-2-0-0--3-2-0--||
D|-3-2-0-0----3-2-0-0--3-2-0--3-2-0-0----3-2-0-0--3-2-0--||

Then, Guitar 1:
E|-------------------||
B|-------------------||
G|-3--3--3--2-----5--||
D|-3--3--3--2-----5--||
A|-1--1--1--0-----3--||    
D|-------------------||    ]you can just figure out how to play
                            both with one geet pretty easy
Guitar 2:
E|-1--1--1--0--------||
B|-------------------||
G|-------------------||
D|-------------------||
A|-------------------||
D|-------------------||

First verse:   (just learn easy rythym for all the powerchords
                on low D, listen to the song)
E|------------------------------------------------||
B|------------------------------------------------||
G|------------------------------------------------||
D|-0--------------------7--0--8--0--7--0--8-7-5---||
A|-0-(palm-mute)--------7--0--8--0--7--0--8-7-5---||
D|-0-(figure-out-rythym)7--0--8--0--7--0--8-7-5---||

Chorus:


                           /second time end with D powerchord twice\
E|------------------------------------------------||
B|------------------------------------------------||
G|------------------------------------------------||
D|-0---7---0---7-3--0---7---0-0-0--8-7-5-7--------|| x2
A|-0---7---0---7-3--0---7---0-0-0--8-7-5-7--------||
D|-0---7---0---7-3--0---7---0-0-0--8-7-5-7--------||
                            \p.m./
[Main Riff]

[Verse]

[Chorus]x2

[Intro Riff]x2

Then
E|--------------------------||
B|--------------------------||
G|-------5---x-----5--5/7---||
D|-0-x-x-5---x-7---5--5/7---||
A|-0-x-x-3---x-7---3--3/5---||
D|-0-x-x-------7------------||

                 /palm mute D powerchord\
E|-----------------------------------||
B|-----------------------------------||
G|-------5---------------------------||
D|-0-x-x-5--7-2--0-0-3--0-0-3--0-0-3-||
A|-0-x-x-3--7-2--0-0-3--0-0-3--0-0-3-||
D|-0-x-x----7-2--0-0-3--0-0-3--0-0-3-||

  /-------------P.M.-----------------\
E|--------------------------------------------------||
B|--------------------------------------------------||
G|------------555555555555--------------------------||
D|000000000000555555555555555555555555----8---7-----||
A|000000000000333333333333555555555555----8---7-----||
D|000000000000------------555555555555----8---7-----||

[Chorus]x2

Outro


 "One...         Two...           Can't...        Laugh...      "
E|----------------------------------------------------------------||
B|----------------------------------------------------------------||
G|----------------5-5-5-5-5-5-5-5---------------------------------||
D|0-0-0-0-0-0-0-0-5-5-5-5-5-5-5-5-5-5-5-5-5-5-5-5-8-8-8-8-7-7-7-7-||x2
A|0-0-0-0-0-0-0-0-3-3-3-3-3-3-3-3-5-5-5-5-5-5-5-5-8-8-8-8-7-7-7-7-||
D|0-0-0-0-0-0-0-0-----------------5-5-5-5-5-5-5-5-8-8-8-8-7-7-7-7-||

[Main Riff]

End with 3 palm-muted D powerchords.
Suggest correction
What's this?
You can suggest a correction to this tab. Community and Mods will review your correction and vote to approve or reject it.
comments
We did not receive enough feedback on this tab! Please rate:
print report bad tab
1 2 3 4 5
guest
You may want to rate the tab now too:
select rating
Please do not post tabs as comments. Select "correction" instead!