Oops, an error
Loading. Please wait.

Phenomenon Bass Tab

version 1
version 1

Whole song

Interactive

6,400 views 15 this week
1 commentread comment
1 2 3 4 5
accurate
x 6
add to favorites
launch autoscroll
font size
0
reset
guitar tuner
Tab Pro tools
  • play this tab
  • loop segment
  • change instrument
  • show fretboard
  • metronome
×
Best way to learn
"Phenomenon"
Autoscroll
slow
fast
+/-
esc
set tempo
stop
Contributor
I play it with a 5 string so here it is, tfk rocks.

song:phenomenon
tabbed by:shae

Intro: Bass comes in with words.
g|-----------------------------------------------|       verse 1
d|-----------------------------------------------|
a|-----------------------------------------------|
e|3-3-3-3--3--3-3-3-3--3-6-6-6-6--6-1-1-1-1--1---|
b|-----------------------------------------------|

chorus1:  play 2x
g|----------------------------------------|
d|----------------------------------------|
a|----------------------------------------|
e|-------------3-333-3-333----------------|
b|4--444-3--333---------------------------|
then
g|----------------------------------------------|
d|----------------------------------------------|
a|----------------------------------------------|
e|-------------3-333-3-333/6-6668-888-----------|
b|4--444-3--333----------------------4-4443-333-|

verse 2:4x
g|---------------------------------------------|
d|---------------------------------------------|
a|---------------------------------------------|
e|3-3-3-3--3--3-3-3-3--3-6-6-6-6--6-1-1-1-1--1-|
b|---------------------------------------------|
verse 2:part two:the verse gets heavy and fast and awesome!
g|---------------------------------|
d|---------------------------------|
a|---------------------------------|
e|3333333-3333333-6666666-11111111-|
b|---------------------------------|

g|------------------------------|
d|------------------------------|
a|------------------------------|
e|3333333-3333333-6666666-1-1-1-|
b|------------------------------|

chorus 2: play 2x
g|----------------------------------------------|
d|----------------------------------------------|
a|----------------------------------------------|
e|-------------3--333-3-333---------------------|
b|4--444-3--333---------------------------------|

g|-----------------------------------------------|
d|-----------------------------------------------|
a|-----------------------------------------------|
e|-------------3--333-3-333/6-6668-888-----------|
b|4--444-3--333-----------------------4-4443-333-|

bridge: play 4x
g|----------------------------------|
d|----------------------------------|
a|----------------------------------|
e|33333333--------66666666-88888888-|
b|--------33333333------------------|

chorus 3: soft part
g|--------------------------      play--| 2x
d|1--111-0--000-5--555-5-555------------|
a|--------------------------------------|
e|--------------------------------------|
b|--------------------------------------|

chorus 3: then it gets heavy:
g|------------------------------------------------|
d|------------------------------------------------|
a|------------------------------------------------|
e|-------------3--333-3--333/6-6668-888-----------|
b|s4--444-3-333------------------------4-4443-333-|

then just repeat the bridge 4x and that is it! rock on tfk
please rate tab
comments
print report bad tab
1 comment total.
0 reply
Hurm wrote on October 10 2010, 04:07 pm

Sorry for the low vote, but tfk basslines aren't that simple. Your missing a lot of notes. If you listen close enough, the intro sounds more like this:

G|-------------------------------------|
D|-3h555-5--3h555-5-----------------3--|
A|--------3--------3---------3-------5-| xfew times
E|---------6--------63h666-66-5555-5---|
B|-------------------------------------|


So listen close while making a tab! I might work this one out later when I got some more time :) Keep rockin'!

I want to post or [tab]
guest
You may want to rate the tab now too:
select rating
Please do not post tabs as comments. Select "correction" instead!