Oops, an error
Loading. Please wait.

Phenomenon Tab

version 1
version 1

Whole song

Interactive

43,283 views 57 this week
16 commentsread comments
1 2 3 4 5
accurate
x 30
add to favorites
launch autoscroll
font size
0
reset
how to read this tab
guitar tuner
Autoscroll
slow
fast
+/-
esc
set tempo
stop
Help us to improve Ultimate-Guitar.com Take our survey!
×
Author
Song: Phenomenon
Artist: Thousand Foot Krutch
Album: Phenomenon
Tabbed by: Willson Haw (far_east_wonder@hotmail.com)
Tuning: Dropped D (DADGBE)

This song is most likely played with 2 guitars, but
I just tabbed it out so it can all be played on one
guitar. My second tabs so errors are likely.

Intro:
E-----------------------------------------------
B-----------------------------------------------
G-----------------------------------------------
D------------------------7--7--7--8----8--------
A--5--5--5--5----5----5--5--5--5--5----5----5---
D--5--5--5--5----5----5--5--5--5--5----5----5---
  | - - - - - - - - P. M. - - - - - - - - - - |

E-----------------------------------------------
B-----------------------------------------------
G-----------------------------------------------
D-----------------8----------------7----7-------
A-5/8--8--8--8----8----8--3--3--3--3----3----3--
D-5/8--8--8--8----8----8--3--3--3--3----3----3--
  | - - - - - - - - P. M. - - - - - - - - - - |

E-----------------------------------------------
B-----------------------------------------------
G-----------------------------------------------
D------------------------7--7--7--8----8--------
A--5--5--5--5----5----5--5--5--5--5----5----5---
D--5--5--5--5----5----5--5--5--5--5----5----5---
  | - - - - - - - - P. M. - - - - - - - - - - |

E-----------------------------------------------
B-----------------------------------------------
G-----------------------------------------------
D-----------------8----------------7----7-------
A-5/8--8--8--8----8----8--3--3--3--3----3----3--
D-5/8--8--8--8----8----8--3--3--3--3----3----3--
  | - - - - - - - - P. M. - - - - - - - - - - |

Verse:
E-----------------------------------------------
B-----------------------------------------------
G-----------------------------------------------
D-----------------------------------------------
A--5--5--5--5----5----5--5--5--5--5----5----5---
D--5--5--5--5----5----5--5--5--5--5----5----5---
  | - - - - - - - - P. M. - - - - - - - - - - |
   If you're like us,    calling all ridaz

E-----------------------------------------------
B-----------------------------------------------
G-----------------------------------------------
D-----------------------------------------------
A-5/8--8--8--8----8----8--3--3--3--3----3----3--
D-5/8--8--8--8----8----8--3--3--3--3----3----3--
  | - - - - - - - - P. M. - - - - - - - - - - |
  roll up beside us       no place to hide us

E-----------------------------------------------
B-----------------------------------------------
G-----------------------------------------------
D-----------------------------------------------
A--5--5--5--5----5----5--5--5--5--5----5----5---
D--5--5--5--5----5----5--5--5--5--5----5----5---
  | - - - - - - - - P. M. - - - - - - - - - - |
   all freedom fightaz, let's unite us

E-----------------------------------------------
B-----------------------------------------------
G-----------------------------------------------
D-----------------------------------------------
A-5/8--8--8--8----8----8--3--3--3--3----3----3--
D-5/8--8--8--8----8----8--3--3--3--3----3----3--
  | - - - - - - - - P. M. - - - - - - - - - - |
  switch on your nitrous    and      lets      go

E-----------------------------------------------
B-----------------------------------------------
G------------------------5----------------------
D--5--7--7--8----8----8-----8--7--8----8----8---
A--5--5--5--5----5----5--5--5--5--5----5----5---
D--5--5--5--5----5----5--5--5--5--5----5----5---
  | - - - - - - - - P. M. - - - - - - - - - - |
  destination            for navigation

E-----------------------------------------------
B-----------------------------------------------
G-----------------------------------------------
D------------7----7----------------7----5----7--
A-5/8--8--8--8----8----8--3--3--3--3----3----3--
D-5/8--8--8--8----8----8--3--3--3--3----3----3--
  | - - - - - - - - P. M. - - - - - - - - - - |
  man up your stations	 feel the sensation

E-----------------------------------------------
B-----------------------------------------------
G------------------------5----------------------
D--5--7--7--8----8----8-----8--7--8----8----8---
A--5--5--5--5----5----5--5--5--5--5----5----5---
D--5--5--5--5----5----5--5--5--5--5----5----5---
  | - - - - - - - - P. M. - - - - - - - - - - |
   surround invasion   with communication

E-----------------------------------------------
B-----------------------------------------------
G-----------------------------------------------
D------------7----7-------3-----3-----3---------
A-5/8--8--8--8----8----8--3-----3-----3---------
D-5/8--8--8--8----8----8--3-----3-----3---------
  |- - - - P. M. - - - |
  move quick we might avoid contamination

Chorus:
E-----------------------------------------------
B-----------------------------------------------
G-----------------------------------------------
D-1-----------------1--1\0------------------0--0
A-1-----------------1--1\0------------------0--0
D-1-----------------1--1\0------------------0--0
  DOWN              here comes the sound    everyone
						
E-----------------------------------------------
B-----------------------------------------------
G-----------------------------------------------
D-5--5--5--5--5--5--5--5--7--7--7--7--8--8--8--8
A-5--5--5--5--5--5--5--5--5--5--5--5--5--5--5--5
D-5--5--5--5--5--5--5--5--5--5--5--5--5--5--5--5
  POUND your feet to this phenomenon

E-----------------------------------------------
B-----------------------------------------------
G-----------------------------------------------
D-1-----------------1--1\0-----------------0-0-0
A-1-----------------1--1\0-----------------0-0-0
D-1-----------------1--1\0-----------------0-0-0
					  |-PM-|
  NOW		    lets make it loud and lets show them all
					  
E-----------------------------------------------
B-----------------------------------------------
G-----------------------------------------------
D-5--5--5--5--5--5--5--5--7--7--7--7--8--8--8--8
A-5--5--5--5--5--5--5--5--5--5--5--5--5--5--5--5
D-5--5--5--5--5--5--5--5--5--5--5--5--5--5--5--5
  HOW we move to this phenomenon

E-----------------------------------------------
B-----------------------------------------------
G-----------------------------------------------
D-1-----------------1--1\0------------------0--0
A-1-----------------1--1\0------------------0--0
D-1-----------------1--1\0------------------0--0
  WOAH     open your soul,      baby lose control
						
E-----------------------------------------------
B-----------------------------------------------
G-----------------------------------------------
D-5--5--5--5--5--5--5--5--7--7--7--7--8--8--8--8
A-5--5--5--5--5--5--5--5--5--5--5--5--5--5--5--5
D-5--5--5--5--5--5--5--5--5--5--5--5--5--5--5--5
  inside of this phenomenon

E-----------------------------------------------
B-----------------------------------------------
G-------------------------3-----2h3~------------
D-8--8--8--8--10-10-10-10-1---------------1--1\0
A-8--8--8--8--10-10-10-10-1---------------1--1\0
D-8--8--8--8--10-10-10-10-1---------------1--1\0
  JUST let yourself go and let everyone know
                          you move to this phenomenon.

Interlude:
E-----------------------------------------------
B-----------------------------------------------
G-----------------------------------------------
D-----------------------------------------------
A--5--5--5--5----5----5--5--5--5--5----5----5---
D--5--5--5--5----5----5--5--5--5--5----5----5---
  | - - - - - - - - P. M. - - - - - - - - - - |

E-----------------------------------------------
B-----------------------------------------------
G-----------------------------------------------
D-----------------------------------------------
A-5/8--8--8--8----8----8--3--3--3--3----3----3--
D-5/8--8--8--8----8----8--3--3--3--3----3----3--
  | - - - - - - - - P. M. - - - - - - - - - - |

E-----------------------------------------------
B-----------------------------------------------
G-----------------------------------------------
D-----------------------------------------------
A--5--5--5--5----5----5--5--5--5--5----5----5---
D--5--5--5--5----5----5--5--5--5--5----5----5---
  | - - - - - - - - P. M. - - - - - - - - - - |

E-----------------------------------------------
B-----------------------------------------------
G-----------------------------------------------
D-----------------------------------------------
A-5/8--8--8--8----8----8--3--3--3--3----3----3--
D-5/8--8--8--8----8----8--3--3--3--3----3----3--
  | - - - - - - - - P. M. - - - - - - - - - - |

Verse2:
E-----------------------------------------------
B-----------------------------------------------
G------------------------5----------------------
D--5--7--7--8----8----8-----8--7--8----8----8---
A--5--5--5--5----5----5--5--5--5--5----5----5---
D--5--5--5--5----5----5--5--5--5--5----5----5---
  | - - - - - - - - P. M. - - - - - - - - - - |
   Don't let these spiders, crawl up beside us

E-----------------------------------------------
B-----------------------------------------------
G-----------------------------------------------
D------------7----7----------------7----5----7--
A-5/8--8--8--8----8----8--3--3--3--3----3----3--
D-5/8--8--8--8----8----8--3--3--3--3----3----3--
  | - - - - - - - - P. M. - - - - - - - - - - |
  They want to bite us, inject the virus

E-----------------------------------------------
B-----------------------------------------------
G------------------------5----------------------
D--5--7--7--8----8----8-----8--7--8----8----8---
A--5--5--5--5----5----5--5--5--5--5----5----5---
D--5--5--5--5----5----5--5--5--5--5----5----5---
  | - - - - - - - - P. M. - - - - - - - - - - |
   Raise up your lighters, praise to the righteous

E-----------------------------------------------
B-----------------------------------------------
G-----------------------------------------------
D------------7----7-------3-----3-----3---------
A-5/8--8--8--8----8----8--3-----3-----3---------
D-5/8--8--8--8----8----8--3-----3-----3---------
  |- - - - P. M. - - - |
  need you to guide us    GET   PREPARED TO GO

E-----------------------------------------------
B-----------------------------------------------
G-----------------------------------------------
D-5--5--5--5--5--5--5--5--7--7--7--7--8--8--8--8
A-5--5--5--5--5--5--5--5--5--5--5--5--5--5--5--5
D-5--5--5--5--5--5--5--5--5--5--5--5--5--5--5--5
  If you're like us, calling all ridaz

E-----------------------------------------------
B-----------------------------------------------
G-----------------------------------------------
D-8--8--8--8--8--8--8--8--3--3--3--3--3--3--3--3  
A-8--8--8--8--8--8--8--8--3--3--3--3--3--3--3--3
D-8--8--8--8--8--8--8--8--3--3--3--3--3--3--3--3
  Roll up beside us, no place to hide us
  
E-----------------------------------------------
B-----------------------------------------------
G-----------------------------------------------
D-5--5--5--5--5--5--5--5--7--7--7--7--8--8--8--8
A-5--5--5--5--5--5--5--5--5--5--5--5--5--5--5--5
D-5--5--5--5--5--5--5--5--5--5--5--5--5--5--5--5
  All freedom fightaz, let's unite us
  
E-----------------------------------------------
B-----------------------------------------------
G-----------------------------------------------
D-8--8--8--8--8--8--8--8--3-----3-----3---------  
A-8--8--8--8--8--8--8--8--3-----3-----3---------
D-8--8--8--8--8--8--8--8--3-----3-----3---------
  Switch on your nitrous  AND   LETS  GO
  
Chorus:
E-----------------------------------------------
B-----------------------------------------------
G-----------------------------------------------
D-1-----------------1--1\0------------------0--0
A-1-----------------1--1\0------------------0--0
D-1-----------------1--1\0------------------0--0
  DOWN              here comes the sound    everyone
						
E-----------------------------------------------
B-----------------------------------------------
G-----------------------------------------------
D-5--5--5--5--5--5--5--5--7--7--7--7--8--8--8--8
A-5--5--5--5--5--5--5--5--5--5--5--5--5--5--5--5
D-5--5--5--5--5--5--5--5--5--5--5--5--5--5--5--5
  POUND your feet to this phenomenon

E-----------------------------------------------
B-----------------------------------------------
G-----------------------------------------------
D-1-----------------1--1\0-----------------0-0-0
A-1-----------------1--1\0-----------------0-0-0
D-1-----------------1--1\0-----------------0-0-0
					  |-PM-|
  NOW		    lets make it loud and lets show them all
					  
E-----------------------------------------------
B-----------------------------------------------
G-----------------------------------------------
D-5--5--5--5--5--5--5--5--7--7--7--7--8--8--8--8
A-5--5--5--5--5--5--5--5--5--5--5--5--5--5--5--5
D-5--5--5--5--5--5--5--5--5--5--5--5--5--5--5--5
  HOW we move to this phenomenon

E-----------------------------------------------
B-----------------------------------------------
G-----------------------------------------------
D-1-----------------1--1\0------------------0--0
A-1-----------------1--1\0------------------0--0
D-1-----------------1--1\0------------------0--0
  WOAH     open your soul,      baby lose control
						
E-----------------------------------------------
B-----------------------------------------------
G-----------------------------------------------
D-5--5--5--5--5--5--5--5--7--7--7--7--8--8--8--8
A-5--5--5--5--5--5--5--5--5--5--5--5--5--5--5--5
D-5--5--5--5--5--5--5--5--5--5--5--5--5--5--5--5
  inside of this phenomenon

E-----------------------------------------------
B-----------------------------------------------
G-------------------------3-----2h3~------------
D-8--8--8--8--10-10-10-10-1---------------1--1\0
A-8--8--8--8--10-10-10-10-1---------------1--1\0
D-8--8--8--8--10-10-10-10-1---------------1--1\0
  JUST let yourself go and let everyone know
                          you move to this phenomenon.

Bridge:
E-----------------------------------------------
B-----------------------------------------------
G-----------------------------------------------
D-5--5--5--5--5--5--5--5--0--0--0--0--0--0--0--0
A-5--5--5--5--5--5--5--5--0--0--0--0--0--0--0--0
D-5--5--5--5--5--5--5--5--0--0--0--0--0--0--0--0
  Can't take it anymore   shake it till we move the floor

E-----------------------------------------------
B-----------------------------------------------
G-----------------------------------------------
D-8--8--8--8--8--8--8--8-10-10-10-10-10-10-10-10
A-8--8--8--8--8--8--8--8-10-10-10-10-10-10-10-10
D-8--8--8--8--8--8--8--8-10-10-10-10-10-10-10-10
  What are we waiting for Lets      go

E-----------------------------------------------
B-----------------------------------------------
G-----------------------------------------------
D-5--5--5--5--5--5--5--5--0--0--0--0--0--0--0--0
A-5--5--5--5--5--5--5--5--0--0--0--0--0--0--0--0
D-5--5--5--5--5--5--5--5--0--0--0--0--0--0--0--0
  Tired of being ordinary, don't care if there's people staring
  
E-----------------------------------------------
B-----------------------------------------------
G-----------------------------------------------
D-8--8--8--8--8--8--8--8-10-10-10-10-10-10-10-10
A-8--8--8--8--8--8--8--8-10-10-10-10-10-10-10-10
D-8--8--8--8--8--8--8--8-10-10-10-10-10-10-10-10
  I always said you'd carry me    on

(Missing harmonics for the 2nd time around, I'll
try to figure these out. I'm bad with harmonics.
If you know these notes, feel free to email me)
E-----------------------------------------------
B-----------------------------------------------
G-----------------------------------------------
D-5--5--5--5--5--5--5--5--0--0--0--0--0--0--0--0
A-5--5--5--5--5--5--5--5--0--0--0--0--0--0--0--0
D-5--5--5--5--5--5--5--5--0--0--0--0--0--0--0--0
  I'm not invisible like you

E-----------------------------------------------
B-----------------------------------------------
G-----------------------------------------------
D-8--8--8--8--8--8--8--8-10-10-10-10-10-10-10-10
A-8--8--8--8--8--8--8--8-10-10-10-10-10-10-10-10
D-8--8--8--8--8--8--8--8-10-10-10-10-10-10-10-10
  next time things get a little messed up

E-----------------------------------------------
B-----------------------------------------------
G-----------------------------------------------
D-5--5--5--5--5--5--5--5--0--0--0--0--0--0--0--0
A-5--5--5--5--5--5--5--5--0--0--0--0--0--0--0--0
D-5--5--5--5--5--5--5--5--0--0--0--0--0--0--0--0
  I'll shine but I'll never be see-through
  
E-----------------------------------------------
B-----------------------------------------------
G-----------------------------------------------
D-8--8--8--8--8--8--8--8-10-10-10-10-10-10-10-10
A-8--8--8--8--8--8--8--8-10-10-10-10-10-10-10-10
D-8--8--8--8--8--8--8--8-10-10-10-10-10-10-10-10
  I'm fine just trying to wake the rest up

E-----------------------------------------------
B-----------------------------------------------
G-----------------------------------------------
D-1--------------------0---------------5--------
A-1--------------------0---------------5--------
D-1--------------------0---------------5--------
  (Clean, no distortion)
  Down, here comes the sound, everyone pound
     your feet to this phenomenon
  
E-----------------------------------------------
B-----------------------------------------------
G-----------------------------------------------
D-1--------------------0---------------5--------
A-1--------------------0---------------5--------
D-1--------------------0---------------5--------
  (still clean)
  Now lets make it loud and lets show them all how
      you move to this phenomenon

E-----------------------------------------------
B-----------------------------------------------
G-----------------------------------------------
D-1--------------1--1--1\0---------------0--0--0
A-1--------------1--1--1\0---------------0--0--0
D-1--------------1--1--1\0---------------0--0--0
					|-P.M.-|
  (Okay, now you can distort ;)
  WOAH     open your soul,      baby lose control
						
E-----------------------------------------------
B-----------------------------------------------
G-----------------------------------------------
D-5--5--5--5--5--5--5--5--7--7--7--7--8--8--8--8
A-5--5--5--5--5--5--5--5--5--5--5--5--5--5--5--5
D-5--5--5--5--5--5--5--5--5--5--5--5--5--5--5--5
  inside of this phenomenon

E-----------------------------------------------
B-----------------------------------------------
G-------------------------3-----2h3~------------
D-8--8--8--8--10-10-10-10-1---------------1--1\0
A-8--8--8--8--10-10-10-10-1---------------1--1\0
D-8--8--8--8--10-10-10-10-1---------------1--1\0
  JUST let yourself go and let everyone know
                          you move to this phenomenon.

E-----------------------------------------------
B-------------------------6--6--6--6------------
G-7p57p57p57p55p35p35p35p3------------7--7--7--7
D-1--1--1--1--0--0--0--0--5--5--5--5--3--3--3--3
A-1--1--1--1--0--0--0--0--5--5--5--5--3--3--3--3
D-1--1--1--1--0--0--0--0--5--5--5--5--3--3--3--3 
                                 You move to this
                                    phenomenon

E-----------------------------------------------
B-7p57p57p57p55p35p35p35p33-------------2h3p2~--
G-----------------------------------------------
D-8--8--8--8--10-10-10-10-1--------1--1\0--0-0-0
A-8--8--8--8--10-10-10-10-1--------1--1\0--0-0-0
D-8--8--8--8--10-10-10-10-1--------1--1\0--0-0-0
					  |-P.M-|
                                 You move to this
                                    phenomenon
Suggest correction
What's this?
You can suggest a correction to this tab. Community and Mods will review your correction and vote to approve or reject it.
comments
print report bad tab
16 comments total. Showing first comments.
+2 reply
Lightbulb 125 wrote on January 12 2004, 12:00 am

pretty good job. 2 thumbs up.

0 reply
blinkguitarist5 189 wrote on June 3 2004, 12:00 am

awesome tab man it sounds exactly like the song good job

0 reply
wakeboarder 175 wrote on September 20 2004, 12:00 am

yeah, your right, good job, 5 stars

guest
You may want to rate the tab now too:
select rating
Please do not post tabs as comments. Select "correction" instead!