Oops, an error
Loading. Please wait.

Phenomenon Bass Tab

version 2
version 2

Whole song

Interactive

1,492 views 1 this week
no commentswrite comment
1 2 3 4 5
please rate
add to favorites
launch autoscroll
font size
0
reset
guitar tuner
Autoscroll
slow
fast
+/-
esc
set tempo
stop
Help us to improve Ultimate-Guitar.com Take our survey!
×
Author
pheonmenon tab by strider_hein

here is my version of phenomenon by tfk. i think its pretty close but there are
some sketchy areas. if you want to know the timing just listen to the song and
i bet u can figure it out. this is also my first tab

Bass comes in when Trevor begins to sing and keep playing until the chorus begins

g|-----------------------------------------|       
d|-----------------------------------------|
a|-----------------------------------------|
d|5555-5--5555-5--8888-8--3333-3-----------|


chorus part one play 3x
g|----------------------------------------|
d|----------------------------------------|
a|----------------------------------------|
d|1--111-0—000-5-555/8/10-----------------|

chorus part two play 1x
g|-------------------------------------------------|
d|-------------------------------------------------|
a|-------------------------------------------------|
d|111111110000000-5-1-111-0------------------------|

verse two lighter part
g|-----------------------------------------|       
d|-----------------------------------------|
a|-----------------------------------------|
d|5555-5--5555-5--8888-8--3333-3-----------|

g|-----------------------------------------|       
d|-----------------------------------------|
a|-----------------------------------------|
d|5555-5--5555-5--8888-8--3333-3-----------|

g|-----------------------------------------|       
d|-----------------------------------------|
a|-----------------------------------------|
d|5555-5--5555-5--8888-8--3333-3-----------|

g|-----------------------------------------|       
d|-----------------------------------------|
a|-----------------------------------------|
d|5555-5--5555-5--8888-8--3333-3-----------|

verse two: heavy part
g|---------------------------------|
d|---------------------------------|
a|---------------------------------|
d|5555555-5555555-8888888-3333333--|

g|------------------------------|
d|------------------------------|
a|------------------------------|
d|5555555-5555555-8888888-3-3-3-|

chorus part one play 3x
g|----------------------------------------|
d|----------------------------------------|
a|----------------------------------------|
d|1--111-0—000-5-555/8/10-----------------|

chorus part two play 1x
g|-------------------------------------------------|
d|-------------------------------------------------|
a|-------------------------------------------------|
d|111111110000000-5-1-111-0------------------------|


bridge 
g|-----------------------------------|
d|-----------------------------------|
a|------------------11111111-33333333|
d|55555555-00000000------------------| 

g|-----------------------------------|
d|-----------------------------------|
a|------------------11111111-33333333|
d|55555555-00000000------------------|

g|-----------------------------------|
d|-----------------------------------|
a|------------------11111111-33333333|
d|55555555-00000000------------------|

g|-----------------------------------|
d|-----------------------------------|
a|------------------11111111-33333333|
d|55555555-00000000------------------|

chorus softer part
g|-----------------------------------------|       
d|-----------------------------------------|
a|-----------------------------------------|
d|-----------------------------------------|

chorus heavy part play 1x
g|----------------------------------------|
d|----------------------------------------|
a|----------------------------------------|
d|1--111-0—000-5-555/8/10-----------------|

chorus part two play 1x
g|-------------------------------------------------|
d|-------------------------------------------------|
a|-------------------------------------------------|
d|111111110000000-5-1-111-0------------------------|

g|-----------------------------------|
d|-----------------------------------|
a|------------------11111111-33333333|
d|55555555-00000000------------------|

g|-----------------------------------|
d|-----------------------------------|
a|-----------------------------------|
d|55555555-00000000----1-111-0-------|

\
Suggest correction
What's this?
You can suggest a correction to this tab. Community and Mods will review your correction and vote to approve or reject it.
comments
We did not receive enough feedback on this tab! Please rate:
print report bad tab
1 2 3 4 5
guest
You may want to rate the tab now too:
select rating
Please do not post tabs as comments. Select "correction" instead!