Oops, an error
Loading. Please wait.

Phenomenon Bass Tab

version 3
version 3

Whole song

Interactive

3,922 views 6 this week
3 commentsread comments
1 2 3 4 5
accurate
x 4
add to favorites
launch autoscroll
font size
0
reset
guitar tuner
Autoscroll
slow
fast
+/-
esc
set tempo
stop
Help us to improve Ultimate-Guitar.com Take our survey!
×
Difficulty
Tuning
intermediate
D A D G B E
Finally a bass tab for the rest of us! Shae was using a 5-string when he submitted his 
this is virtully the same tab (no I didn't coppy him) but transposed to a 4-string in 
D
Drop D
Verse 1: x4
   g-----------------------------------------------------------------------|
   d-----------------------------------------------------------------------|
   a------------------------------------1-1-1-1----------------------------|
   d----5-5-5-5---5---5-5-5-5--5--------------3-3-3-3--3-------------------|
Chorus part 1: x2
   g----------------------------------------------------------------------|
   d----------------------------------------------------------------------|
   a----------------------------------------------------------------------|
   d--1---111-0--000--5-555---5-555---------------------------------------|
Part 2
   g----------------------------------------------------------------------|
   d----------------------------------------------------------------------|
   a-------------------------------------1-1113-333-----------------------|
   d--1-111--0-000--5-555--5-555---------------1-111--0-000---------------|
Verse 2 part 1: x4
   g----------------------------------------------------------------------|
   d----------------------------------------------------------------------|
   a----------------------------1-1-1-1--1--------------------------------|
   d-5-5-5-5--5--5-5-5-5--5------------3-3-3-3--3-------------------------|
Part2
   g-----------------------------------------------------------------------|
   d-----------------------------------------------------------------------|
   a---------------------------11111111------------------------------------|
   d-55555555-55555555--------------33333333-------------------------------|

   g|-----------------------------------------------------------------------|
   d|-----------------------------------------------------------------------|
   a|---------------------------11111111------------------------------------|
   d|--5555555-55555555--------------3-3-3----------------------------------|
Chorus 2 part 1: x2
   g|-----------------------------------------------------------------------|
   d|-----------------------------------------------------------------------|
   a|-----------------------------------------------------------------------|
   d|-1-111--0-000--5-555--5-555--------------------------------------------|
Part 2
   g|-----------------------------------------------------------------------|
   d|-----------------------------------------------------------------------|
   a|------------------------------------1-111--3-333-----------------------|
   d|1-111--0-000--5-555-5-555-----------------1-111--0-000-----------------|
Bridge: x4
   g|-----------------------------------------------------------------------|
   d|-----------------------------------------------------------------------|
   a|----------------------------11111111—33333333--------------------------|
   d|-55555555--00000000----------------------------------------------------|
Chorus 3: part 1: softly
   g-----------------------------------------------------------------------|
   d-1-111--0-000--5-555--5-555--------------------------------------------|
   a-----------------------------------------------------------------------|
   d-----------------------------------------------------------------------|


Part 2: play fast and heavy!
  g------------------------------------------------------------------------|
  d------------------------------------------------------------------------|
  a------------------------------------1-111--3-333------------------------|
  d-1-111--0-000--5-555--5-555------------------1-111--000-----------------|
 for the last part play the bridge fast two times.

Enjoy,
 lonebassist13, signing off!
Suggest correction
What's this?
You can suggest a correction to this tab. Community and Mods will review your correction and vote to approve or reject it.
comments
print report bad tab
3 comments total.
-1 reply
lonebassist13 10 wrote on March 31 2007, 08:11 pm

This tab is pretty much correct, there is some rough spot but not many
lonebassist13

0 reply
SK8nBASS 2,439 wrote on August 24 2009, 11:01 am

Good tab, and the other person is an idiot, Joel Bruyere uses a 4 string for TFK! awesome

0 reply
Haloquadratum 254 wrote on March 6 2013, 03:18 pm

lol it doesn't really sound like the song... if you listen to the chorus, you can hear Joel play much more different notes then the 3 you gave us :p

guest
You may want to rate the tab now too:
select rating
Please do not post tabs as comments. Select "correction" instead!