Oops, an error
Loading. Please wait.

Phenomenon Bass Tab

version 4
version 4

Whole song

Interactive

1,492 views 3 this week
no commentswrite comment
1 2 3 4 5
please rate
add to favorites
launch autoscroll
font size
0
reset
guitar tuner
Autoscroll
slow
fast
+/-
esc
set tempo
stop
Help us to improve Ultimate-Guitar.com Take our survey!
×
Author
Difficulty
Tuning
intermediate
D A D G B E
Take it easy on me guys, I'm a guitarist, not a bassist.  I was just figuring this out 
my newbie bassist of a brother and figured, "hey, why not actually

submit something to this site for once?"

Drop D

Intro:
Guitar only

Verse:
G--------------------------|------------------------------------------------------------|
D--------------------------|------------------------------------------------------------|
A--------------------------|------------------------------------------------------------|
D-5-5-5--5-5-3-3/5-5-5--5-5|/8-8-8--8-8--3-3-3--3-3-|-3-3/5-5-5--5-5-3-3/5-5-5--5-5-----|

Chorus
"Down"        "sound"     "pound"
G-------------7--5----------------------|
D-5--3--5-7-8------8-7-5-5--3-5-7-7-3-3-|
A---------------------------------------|
D---------------------------------------|
3X

G--------------------------------------|
D--------------------------------------|
A--------------------------------------|
D-8-8-8-8-10-10-10-10-1---1-1-0-0-0----|

For the second verse, start off sliding from 3rd fret (low D) to 5 (still low D)




Bridge
G---------------------------------------------------------------|
D---------------------------------------------------------------|
A---------------------------------------------------------------|
D-5--5--5-5-5-5-0--0--0-0-0-0-8--8--8-8-8-8-10--10--10-10-10-10-|
4X

Then again, it might be this.  I'm not 100% sure...
G----------------------------------------------------------------|
D----------------------------------------------------------------|
A----------------------------------------------------------------|
D-5--5--5-3-5-0--0--0-0-0-8--8--8-7-8-10--10--10-10-10-----------|
4X

Chorus (quiet part):
G--------------|
D--------------|
A-6-----5------|
D------------5-|
2X


Final chorus:
G------------------------------------------------------------------------------------------------|
D------------------------------------------------------------------------------------------------|
A------------------------------------------------------------------------------------------------|
D-1---1---1-1--1-0---0---0-0--3/5-5-5-5-3/5-5-5-5-8-8-8p7-8-8-10--10--10-8-|-1---1-1--1-0---0-0-0|
2x


This was pretty fun to do actually, it made me realize a few things about my music.  And 
subs.  Anyway, if you see/hear anything out of place, let me know so I can fix it.
Suggest correction
Give kudos to tab author, rate the tab!
1 2 3 4 5
comments
print report bad tab
guest
You may want to rate the tab now too:
select rating
Please do not post tabs as comments. Select "correction" instead!