Oops, an error
Loading. Please wait.

Puppet Bass Tab

version 2
version 2

Whole song

749 views 6 this week
1 commentread comment
1 2 3 4 5
please rate
add to favorites
launch autoscroll
font size
0
reset
guitar tuner
Tab Pro tools
  • play this tab
  • loop segment
  • change instrument
  • show fretboard
  • metronome
Autoscroll
slow
fast
+/-
esc
set tempo
stop
Difficulty
intermediate
ok i saw some other tabs of this song and i didnt like them at all
so this is mine its sounds really good to me. i dont know what you are giong to think 
i hope you like it
         intro\chorus
 f---------------------------------------------------------------|
 c---------------------------------------------------------------|
 g-444-555-4-7777777-444-555-4-9999999---------------------------|
 c---------------------------------------------------------------|
                                                      2X
 f---------------------------------------------------------------|
 c---------------------------------------------------------------|
 g-444-555-4-7777777-444-555-444-0-9-----------------------------|
 c---------------------------------------------------------------|
            vers 1
 f---------------------------------------------------------------|
 c---------4----------------46---9-64---------4---------------46-|
 g-444-5-4---4--555-444-5-4----4------444-5-4---4--555-444-5-4--5|
 c---------------------------------------------------------------|
               i think you do this 4 times
 f---------------------------------------------------------------|
 c---------------------------------------------------------------|
 g---------------------------------------------------------------|
 c-1-0-1-0-2--0-1-0-1-0-1----------------------------------------|
  vers 1
  and then vers 2          2 times
 f---------------------------------------------------------------|
 c---------------------------------------------------------------|
 g-444-5-4--444-5-2--444-5-4---2~--------------------------------|
 c---------------------------------------------------------------|

  chorus
             and then a little bass solo. you do this 4 or 5 times
 f---------------------------------------------------------------|
 c---------------------------------------------------------------|
 g-----4-5--------5----------------------------------------------|
 c-4-5------4-5-4------------------------------------------------|
             bridge  5 times
 f---------------------------------------------------------------|
 c-------------4---------------4--------------4------------------|
 g----------------------------------------------------777-999----|
 c-5-5-4--5-5-4---5-5-4--5-5-4---5-5-4--5-5-4---5-5-4------------|
       vers 2 and then the chorus for the outro
comments
We did not receive enough feedback on this tab! Please rate:
print report bad tab
1 2 3 4 5
1 comment total.
0 reply
fluffyben wrote on June 9 2008, 03:54 pm

The beginning is excellent, but the bass solo is wrong.

Also, you have it tabbed for Drop D.

I want to post or [tab]
guest
You may want to rate the tab now too:
select rating
Please do not post tabs as comments. Select "correction" instead!