Oops, an error
Loading. Please wait.

Puppet Bass Tab

version 3
version 3

Whole song

762 views 1 this week
no commentswrite comment
1 2 3 4 5
please rate
add to favorites
launch autoscroll
font size
0
reset
guitar tuner
Autoscroll
slow
fast
+/-
esc
set tempo
stop
Help us to improve Ultimate-Guitar.com Take our survey!
×
Contributor
Difficulty
Tuning
intermediate
C G C F A D
Intro And Chorus
F---------------------------------------------------------------|
C---------------------------------------------------------------|
G-666-777-6-11111111111111-666-7-6-12121212121212---------------|
C---------------------------------------------------------------| 
             These are 11's         These are 12's

F---------------------------------------------------------------|
C---------------------------------------------------------------|
G-666-777-6-11111111111111-666-777-666-0-9----------------------|
C---------------------------------------------------------------|
   

Verse 1
F---------------------------------------------------------------|
C---------7----------------76---11-86---------7--------------68-|
G-666-7-6---6--777-666-7-6----6------666-7-6---6--777-666-7-6--7|
C---------------------------------------------------------------|
              
F---------------------------------------------------------------|
C---------------------------------------------------------------|
G---------------------------------------------------------------|
C-1h2-1h2-1h2-1h3--1h2-1h2-1h2-1h3------------------------------|4X
  
Repeat Verse 1


Verse 2          
F---------------------------------------------------------------|
C---------------------------------------------------------------|
G-666-7-6--666-7-4--666-7-6---4~--------------------------------|
C---------------------------------------------------------------|2X

Chorus
  
Bass solo          
F--------------------------|
C-------7-6~--------7~-----|
G--6-7--------6-7-6--------|
C--------------------------|4X


             3X
F-----------------|------------------|
C--------------6--|------------------|
G-----------------|------------------|
C-777-66-7-7-66---|-7776-999--111111-|
                               11's

Verse 2

Chorus
comments
We did not receive enough feedback on this tab! Please rate:
print report bad tab
1 2 3 4 5
I want to post or [tab]
guest
You may want to rate the tab now too:
select rating
Please do not post tabs as comments. Select "correction" instead!