Oops, an error
Loading. Please wait.

Puppet Bass Tab

version 4
version 4

Whole song

2,010 views 1 this week
3 commentsread comments
1 2 3 4 5
x 7
add to favorites
launch autoscroll
font size
0
reset
guitar tuner
Autoscroll
slow
fast
+/-
esc
set tempo
stop
Help us to improve Ultimate-Guitar.com Take our survey!
×
Author
Tuning
D A D G B E
-------------------------------------------------------------------------------
			Puppet - Thousand Foot Krutch
-------------------------------------------------------------------------------

Tuning: Drop D

Intro
G|--------------------------------------------------------------|
D|--------------------------------------------------------0-2~--| x2
A|--4-3-0-/999999-4-3-0-/101010101010-4-3-0-/999999-4-3-0-------|
D|--------------------------------------------------------------|

Verse
G|----------------------------------------------|
D|------------4-----------------4-6----9---6-4--|
A|--444454------4--55-444452--------4-----------|
D|----------------------------------------------|
	      P P               P P P  P   P P

G|-------------------------------------|
D|------------4-----------------4-6----|
A|--444454------4--55-444452--------4--|
D|-------------------------------------|
	      P P	       P P P

Interlude
G|-----------------------------|
D|-----------------------------| x2
A|-----------------------------|
D|--0-1-0-1-0-2---0-1-0-1-0-1--|

Verse
G|----------------------------------------------|
D|------------4-----------------4-6----9---6-4--|
A|--444454------4--55-444452--------4-----------|
D|----------------------------------------------|
	      P P               P P P  P   P P

G|-------------------------------------|
D|------------4-----------------4-6----|
A|--444454------4--55-444452--------4--|
D|-------------------------------------|
	      P P	       P P P

Chorus
G|--------------------------------|
D|--------------------------------| x2
A|--444454---444452---444454--2~--|
D|--------------------------------|

Post-Chorus
G|--------------------------------------------------------------|
D|--------------------------------------------------------0-2~--| x2
A|--4-3-0-/999999-4-3-0-/101010101010-4-3-0-/999999-4-3-0-------|
D|--------------------------------------------------------------|

Bass Solo
G|------------------------|
D|------5-4~--------4-5~--| x4
A|--4-5---------4-5-------|
D|------------------------|

Bridge
G|--------------------------------------------------------------------|
D|-----------------4----------------4----------------4----------------| x4
A|--5-5-4---5-55-4---5-5-4---5-55-4---5-5-4---5-55-4---5-5-4---77-99--|
D|--------------------------------------------------------------------|

Chorus
G|--------------------------------|
D|--------------------------------| x2
A|--444454---444452---444454--2~--|
D|--------------------------------|

Outro
G|--------------------------------------------------------------|
D|--------------------------------------------------------0-2~--| x2
A|--4-3-0-/999999-4-3-0-/101010101010-4-3-0-/999999-4-3-0-------|
D|--------------------------------------------------------------|

All the other versions were kinda messed... Please rate/comment!

| /  slide up
| \  slide down
| h  hammer-on
| p  pull-off
| ~  let note ring
| +  harmonic
| x  Mute note
===============================================================================
Suggest correction
comments
print report bad tab
3 comments total.
0 reply
joel94 154 Sep 09, 2009 09:19 PM

wow this is so much better than all the other ones. oh and thanks for the Inhuman tab its great

0 reply
Haloquadratum 110 Mar 11, 2013 05:53 PM

great great tab!

*****

0 reply
Deeryav 314 Nov 18, 2013 03:07 AM

Verse
G|----------------------------------------------|
D|------------4-----------------4-6----9---6-4--|
A|--444454------4--55-444452--------4-----------|
D|----------------------------------------------|
P P P P P P P P

I think it'll be like this

Verse
G|------------------------------------4--------|
D|------------4------------------6--------4-3--|
A|--444454------4--5-444452----4---4-----------|
D|---------------------------------------------|
P P P P P P P P

guest
You may want to rate the tab now too:
select rating
Wanna post a correction for this tab? Suggest correction