Oops, an error
Loading. Please wait.

Quicken Bass Tab

348 views 1 this week
1 commentread comment
1 2 3 4 5
3 more votes to show rating
add to favorites
launch autoscroll
font size
0
reset
guitar tuner
Autoscroll
slow
fast
+/-
esc
set tempo
stop
Help us to improve Ultimate-Guitar.com Take our survey!
×
Author
Difficulty
Tuning
advanced
D G C F A D
  Intro:
G|---------------------------------------------------------------------------|
D|--5-5---5/8888/1010100-3---0-0081010105-5-55-55/8888/1010100-3-33301--1--1-|
A|---------------------------------------------------------------------------|
E|---------------------------------------------------------------------------|

  Verse 1:
G|---------00-000---0-128-8----87-7---7/141414|
D|---------------7-8---------8----------------|
A|-----------8--------------------------------|
E|--8-877-------------------------------------|

G|---------00-000---0-128-8----87-7---7/141414|x3
D|---------------7-8---------8----------------|
A|-----------8--------------------------------|
E|--8-877-------------------------------------|

  Pre-chorus:
G|-----------------------------------|
D|--8-877-5-5/7777---7-----7-----78--|<----- not to sure about this please
A|----------------------8-----8------| correct me if im wrong
E|-----------------------------------|

  Chorus:
G|---------------------------------3555---------------------------------3555-
D|-5-5-55--5/88881010100-3-33--0-30-----5-5-55--5/88881010100-3-----0-30-----
A|---------------------------------------------------------------------------
E|---------------------------------------------------------------------------

G|---------------------------------3555--------------------------------------
D|-5-5-55--5/88881010100-3-33--0-30-----5-5-55--5/88881010-1--1--1-----------
A|--------------------------------------------------------------------------
E|---------------------------------------------------------------------------

  Verse 2:
G|---------00-000---0-128-8----87-7---7/141414|
D|---------------7-8---------8----------------|
A|-----------8--------------------------------|
E|--8-877-------------------------------------|

G|-------00-000---0-128-8----87-7--7--------|
D|-------------7-8---------8----------------|
A|---------8--------------------------------|
E|--8-877-----------------------------------|

G|---------00-000---0-128-8----87-7---7/141414|x2
D|---------------7-8---------8----------------|
A|-----------8--------------------------------|
E|--8-877-------------------------------------|

Pre-chorus

  Chorus                                      "...Break us!"
(From now on, add this to the end of chorus): G|--3555--|

  Bridge:
G|-------------------------------------------------|
D|--5-5-5-5-5-5-5-5-5-5-5-5-3-3-3-3-3-3-3-3-3-3-3-3|
A|-------------------------------------------------|
E|-------------------------------------------------|

G|----------------------3-3-------3---------|
D|-1---1---1---1---0-0-------0-0------3--3--|
A|------------------------------------------|
E|------------------------------------------|

G|--------------------------------|
D|55555555555555553333333333333333|
A|--------------------------------|
E|--------------------------------|

G|----------------------3-3-------3---------|
D|1-1-1-1-1-1-1-1--0-0-------0-0-----3-3-3--|
A|------------------------------------------|
E|------------------------------------------|

Chorus
Suggest correction
Give kudos to tab author, rate the tab!
1 2 3 4 5
comments
print report bad tab
1 comment total.
0 reply
Haloquadratum 110 May 17, 2013 11:14 AM

it sounds good when played in drop D.

guest
You may want to rate the tab now too:
select rating
Wanna post a correction for this tab? Suggest correction