Oops, an error
Loading. Please wait.

Rawkfist Tab

version 1
version 1

Whole song

Interactive

31,198 views 30 this week
18 commentsread comments
1 2 3 4 5
excellent!
x 25
add to favorites
launch autoscroll
font size
0
reset
how to read this tab
guitar tuner
Autoscroll
slow
fast
+/-
esc
set tempo
stop
Help us to improve Ultimate-Guitar.com Take our survey!
×
Author
Thousand Foot Krutch
Rawkfist
By: SSj Guitarist

Ok, first off, I had some help with this tab, but I figured we needed a
really good accurate version of this song, seeing as it's just so darn good. Lol

Intro:
E-----------------------------------------------------------------------|
B-----------------------------------------------------------------------|
G-----------------------------------------------------------------------|
D-----------------------------------------------------------------2--2--|
A-----------------------------------------------------------------2--2--|
D-----------------------------------------------------------------2--2--|

Verse:
E--------X-------XXXXX-------X-------XXXXX-------X-------XXX----------|
B--------X-------XXXXX-------X-------XXXXX-------X-------XXX----------|
G--------X-------XXXXX-------X-------XXXXX-------X-------XXX----------|
D---7/9—-X--7/9—-XXXXX—-7/9—-X—-7/9—-XXXXX—-7/9--X--7/9--XXX—--7-5-0--|    x2
A—--5/7--X—-5/7--XXXXX--5/7--X--5/7—-XXXXX—-5/7—-X--5/7--XXX—--7-5-0--|
D--------X-------XXXXX-------X-------XXXXX-------X-------XXX---7-5-0--|

(Note: you can "scratch" the strings as many times as you please, this is how I many I please)

Chorus:
E------------------------------------------|
B------------------------------------------|     Play second Part right after
G--9—-0--7-----7--7--7---------------------|     this part
D--9--0—-7-----7--7--7--7--7---0---7—---7--|
A—-7—----5-----5--5--5--7--7---0---7—---7--|
D-----------------------7--7---0---7----7--|

E-------------------------------------------|
B-------------------------------------------|
G-------------------------------------------|
D--2--2--0-----0--0--0--7--7--7----10---10--|
A--2--2--0-----0--0--0--7--7--7----10---10--|
D-—2--2--0-----0--0--0--7--7--7----10---10--|

Post Chorus:
E------------------------|
B------------------------|
G------------------------|
D--5--0--2--XX--5--0--7--|
A--5--0--2--XX--5--0--7--|
D--5--0--2--XX--5--0--7--|

Verse
Chorus
Post Chorus

Bridge:
E-----------------------------------------------------------------------------|
B-----------------------------------------------------------------------------|
G------------------------------------------------------4----------3—----------|
D--2----2h5p4------2--2----2h4p2h5p4p2--2--2h5p4—-X-X--4--XXXXXX--3--XXXX-----|
A--2----2h5p4------2--2----2h4p2h5p4p2--2--2h5p4--X-X—-2--XXXXXX--1--XXXX-----|
D—-2----2h5p4------2--2----2h4p2h5p4p2--2--2h5p4--X-X-----XXXXXX-----XXXX-----|
E-----------------------------------------------------------------------------|
B-----------------------------------------------------------------------------|
G--------------------------------------------------------4----------3---------|
D--2----2h5p4------2-2-X-2-2h5p4--X--X----2--2h5p4--X-X--4--XXXXXX--3--XXX-0--|
A--2----2h5p4------2-2-X-2-2h5p4--X--X----2--2h5p4--X-X--2--XXXXXX--1--XXX-0--|
D--2----2h5p4------2-2-X-2-2h5p4—-X--X----2--2h5p4--X-X-----XXXXXX-----XXX-0--|


Pre-Solo:
E--------------------------------------------------------------------------|
B--------------------------------------------------------------------------|
G--------------------------------------------------------------------------|
D--2--2-----------2--2-----------2--2------------2--2----------------------|
A--2--2-----------2--2-----------2--2------------2--2----------------------|
D—-2--2-----------2--2-----------2--2------------2--2----------------------|


Solo:
E----------------------------------------------------------------------0---|
B----------------------------------------------------------------------0---|
G--------------------------------------------------------------------------|
D--5-2-4-2--5-2-4-2--5-2-4-2-5-2-4-2--5-2-4-2--5-2-4-2--5-2-4-2-5-2-4-2----|
A--5-2-4-2--5-2-4-2--5-2-4-2-5-2-4-2--5-2-4-2--5-2-4-2--5-2-4-2-5-2-4-2----|
D--5-2-4-2--5-2-4-2--5-2-4-2-5-2-4-2--5-2-4-2--5-2-4-2--5-2-4-2-5-2-4-2----|

E---------0-----------------0--------0----------------0--------0-----------|
B---------0-----------------0--------0----------------0--------0-----------|
G--------------------------------------------------------------------------|
D--5-2-4-2---5-2-4-2-5-2-4-2--5-2-4-2--5-2-4-2-5-2-4-2--5-2-4-2------------|
A--5-2-4-2—--5-2-4-2-5-2-4-2--5-2-4-2--5-2-4-2-5-2-4-2--5-2-4-2------------|
D--5-2-4-2—--5-2-4-2-5-2-4-2--5-2-4-2--5-2-4-2-5-2-4-2--5-2-4-2------------|

E-----------------0--------0------------------------------------------------|
B-----------------0--------0------------------------------------------------|
G---------------------------------------------------------------------------|
D--5-2-4-2-5-2-4-2--5-2-4-2--5-2-4-2--2--2h5p4------2--2--------------------|
A--5-2-4-2-5-2-4-2--5-2-4-2--5-2-4-2--2--2h5p4------2--2--------------------|
D--5-2-4-2-5-2-4-2--5-2-4-2--5-2-4-2--2--2h5p4------2--2--------------------|

So that's it.  It's my first tab, but I guarantee if it's not 100% right, it's in the 
90's anyway. Lol


SSj
Suggest correction
What's this?
You can suggest a correction to this tab. Community and Mods will review your correction and vote to approve or reject it.
comments
print report bad tab
18 comments total. Showing first comments.
0 reply
Falling_4ever 13 wrote on December 4 2004, 12:00 am

awesome tab.

0 reply
My_Monologue101 48 wrote on March 23 2005, 12:00 am

u did a great job on this. its an awesome song and u definitely did it justice. good job!!

0 reply
ice_wiz 154 wrote on October 3 2005, 12:49 pm

don't you hear those harmonics they practically make the song

guest
You may want to rate the tab now too:
select rating
Please do not post tabs as comments. Select "correction" instead!