Oops, an error
Loading. Please wait.

Rawkfist Bass Tab

version 2
version 2

Whole song

Interactive

971 views 1 this week
no commentswrite comment
1 2 3 4 5
please rate
add to favorites
launch autoscroll
font size
0
reset
guitar tuner
Tab Pro tools
  • play this tab
  • loop segment
  • change instrument
  • show fretboard
  • metronome
×
Best way to learn
"Rawkfist"
Autoscroll
slow
fast
+/-
esc
set tempo
stop
Difficulty
intermediate
Thousand Foot Krutch - Rawfist

Intro:

 G|-------|
 D|-------|
 A|-------|
 D|--0-0--|


Verse:


G|--------------------------------------------------------------|
D|--------------------------------------------------------------|
A|-5h7-----5h7---------5h7-----5h7---------5h7-----5h7----------|
D|-----0-0-----0-0-0-0-----0-0-----0-0-0-0-----0-0-----0-0-0-0--|


G|------------------------------------------------------|
D|------------------------------------------------------|
A|-5h7----------------5---------------------------------|
D|-----0-0-0-0----3-2-----------------------------------|

Chorus:

    Repeat 3 times
G|------------------------|--------------------------|
D|------------------------|--------------------------|
A|------5~5-5-5-----------|--------------------------|
D|--0-0---------5-5-5-5-5-|--3-2-0---3-2-5-----------|


Bridge:

G|------------------------------------------------------------|
D|------------------------------------------------------------|
A|-----5------------------------5---------2~~-------1~~-------|
D|0--0---0--0-0-----------0--0---0--0-0-----0-0-0-----0-0-----|


G|--------------------------------------------------------|
D|--------------------------------------------------------|
A|-------5--------------5----------2~--------1~-----------|
D|--0--0---0--0-0---0--0---0---0-0-----0-0-0-----0-0------|


G|-------------------------------|
D|-------------------------------|
A|-------------------------------|
D|--0-0-----0-0-----0-0-----0-0--|


G|---------------------------------|
D|---------------------------------|
A|---------------------------------|
D|-5-0-4-0---5-0-4-0-5-0-4-0-------|
comments
We did not receive enough feedback on this tab! Please rate:
print report bad tab
1 2 3 4 5
I want to post or [tab]
guest
You may want to rate the tab now too:
select rating
Please do not post tabs as comments. Select "correction" instead!