Oops, an error
Loading. Please wait.

Rawkfist Bass Tab

version 3
version 3

Whole song

Interactive

5,392 views 6 this week
2 commentsread comments
1 2 3 4 5
x 5
add to favorites
launch autoscroll
font size
0
reset
guitar tuner
Autoscroll
slow
fast
+/-
esc
set tempo
stop
Help us to improve Ultimate-Guitar.com Take our survey!
×
Author
Difficulty
Tuning
novice
D A D G B E
Rawkfist
Thousand Foot Krutch

Tabbed by: Allstatecello

Tuning: Drop D


  Verse 1
G ---------------------------------------------------|
D --------------------------97-----------------5-4---|
A -------57--57----57--57--7--57--57----57--575----5-|
D --2-2----------------------------------------------|

G ------------------------------------------|
D -------------------------------------5-4--|
A -57--57----57--57----57--57----57-------5-|
D ------------------------------------------|


  Chorus x2
G ------------------|
D ---9---7----------|
A -7--5-5--0-7-00-7-|
D ------------------|

G --------------5---|
D ---9---7--------5-|
A -7--5-5--0-7-0----|
D ------------------|


  Bridge
G ---------------|
D ---------------|
A -------------0-|
D -5-0-2---5-0---|


  Verse 2
G ----------------------------------------------|
D --------------------97-----------------5544---|
A -57--57----57--57--7--57--57----57--575----55-|
D ----------------------------------------------|

G ---------------------------------------------|
D --------------------97-----------------5-4---|
A -57--57----57--57--7--57--57----57--575----5-|
D ---------------------------------------------|


  Chorus x2
G ------------------|
D ---9---7----------|
A -7--5-5--0-7-00-7-|
D ------------------|

G --------------5---|
D ---9---7--------5-|
A -7--5-5--0-7-0----|
D ------------------|


  Bridge
G ---------------|
D ---------------|
A -------------0-|
D -5-0-2---5-0---|


  Breakdown
G ----------------------7\----------------------|
D ----------------------------------------------|
A --------------------------------------2-----1-|
D -2----25-2----2-2-------2----25-2-------------|

G --------------------------------------------------|
D --------------------------------------------------|
A ------------------------------------------2-----1-|
D -2----25-2----2-2---25-2----2----25-2-------------|

G --------------------------|
D --------------------------|
A --------------------------|
D -2-2----2-2----2-2----2-2-|


  Guitar Solo


  Ending
G ------------------------------------------|
D ------------------------------------------|
A ------------------------------------------|
D -2---2-22----2---2-22----2----2----2----2-|

G ------------------|
D ------------------|
A ------------------|
D -2----2-52----2-2-|
Suggest correction
comments
print report bad tab
2 comments total.
0 reply
Haloquadratum 110 Mar 13, 2013 04:14 PM

am I wrong or is a big part of the bridge missing?

0 reply
Haloquadratum 110 Mar 13, 2013 04:17 PM

oh I found it lol

guest
You may want to rate the tab now too:
select rating
Wanna post a correction for this tab? Suggest correction