Oops, an error
Loading. Please wait.

Rawkfist Tab

version 3
version 3

Whole song

Interactive

1,915 views 1 this week
no commentswrite comment
1 2 3 4 5
please rate
add to favorites
launch autoscroll
font size
0
reset
how to read this tab
guitar tuner
Autoscroll
slow
fast
+/-
esc
set tempo
stop
Help us to improve Ultimate-Guitar.com Take our survey!
×
Author
Difficulty
Tuning
novice
D A D G B E
-----------------------------------------------------------------------
Rawkfist – Thousand Foot Krutch
-----------------------------------------------------------------------
Tabber: cj_brents
Email:  cj_brents@yahoo.com

Tuning: Drop D

Intro
e|--------------------------------------|
B|--------------------------------------|
G|--------------------------------------|
D|---------------------------------2--2-|
A|---------------------------------2--2-|
E|---------------------------------2--2-|

Verse
e|--------------------------------------|
B|--------------------------------------|
G|-----xxxx---xxxxxxxx---xxxx---xxxxxxxx|
D|---/9xxxx7/9xxxxxxxx7/9xxxx7/9xxxxxxxx|
A|---/7xxxx5/7xxxxxxxx5/7xxxx5/7xxxxxxxx|
D|-----xxxx---xxxxxxxx---xxxx---xxxxxxxx|

e|--------------------------------------|
B|--------------------------------------|
G|-----xxxx---xxxxxxxx---xxxxxx---------|
D|--7/9xxxx7/9xxxxxxxx7/9xxxxxx5-4-0----|
A|--5/7xxxx5/7xxxxxxxx5/7xxxxxx5-4-0----|
D|-----xxxx---xxxxxxxx---xxxxxx5-4-0----|


e|--------------------------------------|
B|--------------------------------------|
G|-----xxxx---xxxxxxxx---xxxx---xxxxxxxx|
D|--0h2xxxx0h2xxxxxxxx0h2xxxx0h2xxxxxxxx|
A|--0h2xxxx0h2xxxxxxxx0h2xxxx0h2xxxxxxxx|
D|--0h2xxxx0h2xxxxxxxx0h2xxxx0h2xxxxxxxx|

e|--------------------------------------|
B|--------------------------------------|
G|-----xxxx---xxxxxxxx---xxxxxx---------|
D|--0h2xxxx0h2xxxxxxxx0h2xxxxxx5-4-0----|
A|--0h2xxxx0h2xxxxxxxx0h2xxxxxx5-4-0----|
D|--0h2xxxx0h2xxxxxxxx0h2xxxxxx5-4-0----|

Chorus
e|-----------------------------------------------------------------|
B|-----------------------------------------------------------------|
G|-----------------------------------------------------------------|
D|--2-----0--------7--7--7-7---7---2-----0---------7--7--7-10---10-|
A|--2-----0--------7--7--7-7---7---2-----0---------7--7--7-10---10-| x2
D|--2-----0--------7--7--7-7---7---2-----0---------7--7--7-10---10-|
 
Post-Chorus
e|--------------------------|
B|--------------------------|
G|--------------------------|
D|--5--0--2---xx---5--0--7--|
A|--5--0--2---xx---5--0--7--|
D|--5--0--2---xx---5--0--7--|

Verse
e|--------------------------------------|
B|--------------------------------------|
G|-----xxxx---xxxxxxxx---xxxx---xxxxxxxx|
D|-----xxxx---xxxxxxxx---xxxx---xxxxxxxx| 
A|--5h7xxxx5h7xxxxxxxx5h7xxxx5h7xxxxxxxx| 
D|-----xxxx---xxxxxxxx---xxxx---xxxxxxxx|

e|--------------------------------------|
B|--------------------------------------|
G|-----xxxx---xxxxxxxx---xxxxxx---------|
D|-----xxxx---xxxxxxxx---xxxxxx5-4-0----|
A|--5h7xxxx5h7xxxxxxxx5h7xxxxxx5-4-0----|
D|-----xxxx---xxxxxxxx---xxxxxx5-4-0----|


e|--------------------------------------|
B|--------------------------------------|
G|-----xxxx---xxxxxxxx---xxxx---xxxxxxxx|
D|--0h2xxxx0h2xxxxxxxx0h2xxxx0h2xxxxxxxx|
A|--0h2xxxx0h2xxxxxxxx0h2xxxx0h2xxxxxxxx|
D|--0h2xxxx0h2xxxxxxxx0h2xxxx0h2xxxxxxxx|

e|--------------------------------------|
B|--------------------------------------|
G|-----xxxx---xxxxxxxx---xxxxxx---------|
D|--0h2xxxx0h2xxxxxxxx0h2xxxxxx5-4-0----|
A|--0h2xxxx0h2xxxxxxxx0h2xxxxxx5-4-0----|
D|--0h2xxxx0h2xxxxxxxx0h2xxxxxx5-4-0----|

Bridge
e|------------------------------------------------------------------|
B|------------------------------------------------------------------|
G|------------------------------------------------------------------|
D|--2----2---2-----2--2------25-2----2----2---2-xxx----xxxxx----xxxx|
A|--2----2---2-----2--2------25-2----2----2---2-xxx2---xxxxx1---xxxx|
D|--2----25b-2-----2--2------25-2----2----25b-2-xxx----xxxxx----xxxx|

e|--------------------------------------------------------------------|
B|--------------------------------------------------------------------|
G|--------------------------------------------------------------------|
D|--2----2---2-----2----2-2---2---xx2-----2---2---xxx----xxxxx----xxxx|
A|--2----2---2-----2----2-2---2---xx2-----2---2---xxx2---xxxxx1---xxxx|
D|--2----25b-2-----2----2-25b-2---xx2-----25b-2---xxx----xxxxx----xxxx|
 

e|--------|
B|--------|
G|--------|
D|--2--2--|
A|--2--2--|x4  
D|--2--2--|

Outro
e|--------------------------------------------------------------------|
B|--------------------------------------------------------------------|
G|--------------------------------------------------------------------|
D|--------------------------------------------------------------------|
A|--------------------------------------------------------------------|
D|--7p2-5p2—7p2-5p2—7p2-5p2-7p2-5p2--7p2-5p2—7p2-5p2—7p2-5p2-7p2-5p2--|

e|--------------------------------------------------------------------|
B|--------------------------------------------------------------------|
G|--------------------------------------------------------------------|
D|-------------------------------------------2-----2---2-----2--2-----|
A|-------------------------------------------2-----2---2-----2--2-----|
D|--7p2-5p2—7p2-5p2—7p2-5p2-7p2-5p2--7p2-5p2-2-----25b-2-----2--2-----|








| /  slide up
| \  slide down
| h  hammer-on
| p  pull-off
| ~  vibrato
| +  harmonic
| x  Mute note
=======================================================================
Suggest correction
What's this?
You can suggest a correction to this tab. Community and Mods will review your correction and vote to approve or reject it.
comments
We did not receive enough feedback on this tab! Please rate:
print report bad tab
1 2 3 4 5
guest
You may want to rate the tab now too:
select rating
Please do not post tabs as comments. Select "correction" instead!