Oops, an error
Loading. Please wait.

Rawkfist Tab

version 4
version 4

Whole song

Interactive

3,415 views 1 this week
no commentswrite comment
1 2 3 4 5
please rate
add to favorites
launch autoscroll
font size
0
reset
how to read this tab
guitar tuner
Tab Pro tools
  • play this tab
  • loop segment
  • change instrument
  • show fretboard
  • metronome
×
Best way to learn
"Rawkfist"
Autoscroll
slow
fast
+/-
esc
set tempo
stop
Contributor
Difficulty
intermediate
Rawkfist
Thousand Foot Krutch

Drop D

Throw up your rockfist
If you're feelin it when I drop this.

----------|
----------|
----------|
--2--2----|
--2--2----|
--2--2----|

Verse (2x)

---------x-x------------x-x-x-------------x-x----------|
---------x-x------------x-x-x-------------x-x----------|
--7-/-9--x-x---7-/-9----x-x-x--7-/--9-----x-x--7-/-9---|
--x---x--x-x---x—--x----x-x-x--x----x-----x-x--x—--x---|
--5-/-7--x-x---5-/-7----x-x-x--5-/--7-----x-x--5-/-7---|
---------x-x------------x-x-x-------------x-x----------|

---------x-x------------x-x-x-------------x-x------------|
---------x-x------------x-x-x-------------x-x------------|
--7-/-9--x-x---7-/-9----x-x-x--7-/--9-----x-x------------|
--x---x--x-x---x—--x----x-x-x--x----x-----x-x----7--5--0-|
--5-/-7--x-x---5-/-7----x-x-x--5-/--7-----x-x----7--5--0-|
---------x-x------------x-x-x-------------x-x----7--5--0-|
Show 'em how we blow the spot,
Let's make it hot,
Let's shock 'em with the bodyrock 'til the party stops.
It's time to take it up a notch, and keep it locked,
for all the headbangers in the parking lot.
Here we come, if you're ready or not.
No time to talk.
Cause we on the clock bringin that Uhh, Uhh, to your block.
Let me show ya where we're comin from,
it don't stop, from L.A. to New York.
Show me what you got now


Chorus (2x)
----------------------------------|
----------------------------------|
--9--9--7-7-7---------------------|
--9--9--7-7-7--7-7-7--0--7-7------|
--7--7--5-5-5--7-7-7--0--7-7------|
---------------7-7-7--0--7-7------|

--------------------------------|
--------------------------------|
--------------------------------|
--2-2--0----0-0-0--7-7-7--10-10-|
--2-2--0----0-0-0--7-7-7--10-10-|
--2-2--0----0-0-0--7-7-7--10-10-|
All I know is what it did take to make this.
All I am is what it will take to break this.
All I know is what it did take to make this.
All I am is what it will take to break this
------------------------------|
------------------------------|
------------------------------|
--5--0--2----x-x---5--0--7----|
--5--0--2----x-x---5--0--7----|
--5--0--2----x-x---5--0--7----|
Light it up now, Light it up now

Verse 2
Try runnin me down, keep runnin around,
I'm fakin you out, would you just,
make it what you want it to be,
about to find out, what you're all about,
I'm callin you out, won't ya just set me free.

Try runnin me down, keep runnin around,
(Show 'em how we blow the spot,Let's make it hot)
I'm fakin you out, would you just,
(Let's shock 'em with the bodyrock)
make it what you want it to be,
('til the party stops.)
about to find out, what you're all about,
(It's time to take it up a notch, and keep it locked) I'm callin you out, won't ya just 
me free.
(for all the headbangers in the parking lot.)

Chorus

Bridge
-----------------------------------------|
-----------------------------------------|
-----------------------------------------|
--2----2h5p4------2--2----2h4p2h5p4p2----|
--2----2h5p4------2--2----2h4p2h5p4p2----|
--2----2h5p4------2--2----2h4p2h5p4p2–---|
Throw up your rawkfist if you're feelin it when I drop this
That's the sound when the rock hits

------------------------------------------------|
------------------------------------------------|
------------------4-------------3---------------|
-2-----2h5p4–x-x--4--x-x-x-x-x--3---x-x-x-x-x---|
-2-----2h5p4–x-x--2--x-x-x-x-x--1---x-x-x-x-x---|
-2-----2h5p4–x-x-----x-x-x-x-x------x-x-x-x-x–--|
Oh, you never know, I might let go
Get ready, Get set

--------------------------------------|
--------------------------------------|
--------------------------------------|
--2----2h5p4------2------2h4p2h5p4p2--|
--2----2h5p4------2------2h4p2h5p4p2--|
--2----2h5p4------2------2h4p2h5p4p2–-|
Throw up your rawkfist if you're feelin it when I drop this.
Uhh, Uhh, that's the sound when the rock hits

--------------------------------------------------|
--------------------------------------------------|
------------------4-------------3-----------------|
-2-----2h5p4–x-x--4--x-x-x-x-x--3---x-x-x-x-x-----|
-2-----2h5p4–x-x--2--x-x-x-x-x--1---x-x-x-x-x-----|
-2-----2h5p4–x-x-----x-x-x-x-x------x-x-x-x-x-----|
Oh, you never know, I might let go.
Get ready, Get set
----------------------------|
----------------------------|
----------------------------|
--2--2----2-2----2-2----2-2-|
--2--2----2-2----2-2----2-2-|
--2--2----2-2----2-2----2-2-|
That's the sound when the rock hits
That's the sound when the rock hits
That's the sound when the rock hits
Make the sound when the rock hits,

-----------------------------------------|
-----------------------------------------|
-----------------------------------------|
--5-2-4-2---5-2-4-2---5-2-4-2-5-2-4-2----|
--5-2-4-2---5-2-4-2---5-2-4-2-5-2-4-2----|
--5-2-4-2---5-2-4-2---5-2-4-2-5-2-4-2----|

--------------------0---------0------------|
--------------------0---------0------------|
-------------------------------------------|
--5-2-4-2---5-2-4-2---5-2-4-2--5-2-4-2-----|
--5-2-4-2---5-2-4-2---5-2-4-2--5-2-4-2-----|
--5-2-4-2---5-2-4-2---5-2-4-2--5-2-4-2-----|

----------0---------0-----------------0------|
----------0---------0-----------------0------|
---------------------------------------------|
--5-2-4-2---5-2-4-2---5-2-4-2-5-2-4-2--------|
--5-2-4-2---5-2-4-2---5-2-4-2-5-2-4-2--------|
--5-2-4-2---5-2-4-2---5-2-4-2-5-2-4-2--------|

------------------0-----------0-------------|
------------------0-----------0-------------|
--------------------------------------------|
--5-2-4-2-5-2-4-2----5-2-4-2----5-2-4-2-----|
--5-2-4-2-5-2-4-2----5-2-4-2----5-2-4-2-----|
--5-2-4-2-5-2-4-2----5-2-4-2----5-2-4-2-----|

-------------------------------------------|
-------------------------------------------|
-------------------------------------------|
--5-2-4-2---2--2--2h5p4---2--2-------------|
--5-2-4-2---2--2--2h5p4---2--2-------------|
--5-2-4-2---2--2--2h5p4---2--2-------------|
Throw up you rockfist if you're feelin it when I drop this
comments
We did not receive enough feedback on this tab! Please rate:
print report bad tab
1 2 3 4 5
I want to post or [tab]
guest
You may want to rate the tab now too:
select rating
Please do not post tabs as comments. Select "correction" instead!