Oops, an error
Loading. Please wait.

Rhime Animal Bass Tab

version 1
version 1

Whole song

Interactive

1,262 views 3 this week
no commentswrite comment
1 2 3 4 5
please rate
add to favorites
launch autoscroll
font size
0
reset
guitar tuner
Autoscroll
slow
fast
+/-
esc
set tempo
stop
Help us to improve Ultimate-Guitar.com Take our survey!
×
Author
-------------------------------------------------------------------------------
	Rhime Animal - Thousand Foot Krutch
-------------------------------------------------------------------------------

Tuning: Standard

Intro
G|---------------------------------------7--------|
D|-------9-7-9----------------9-7-9--7-9---9-7h9--|
A|--------------7-8-9-----------------------------|
E|--7--7--------------5-7---7---------------------|

G|-------------------------|
D|-------9-7-9-------------|
A|-------------7-8-9-------|
E|--7--7-------------5-7\--|

Verse
G|--------------------------------------7--------|
D|-------9-7-9---------------9-7-9--7-9---9-7h9--|
A|-------------7-8-9-----------------------------|
E|--7--7-------------5-7---7---------------------|

G|---------------------------------------------|
D|-------9-7-9----------------7/9-9-7h9--------|
A|-------------7-8-9--------------------7h9----|
E|--7--7-------------5-7\-------------------7--|

G|---------------------------------------7--------|
D|-------9-7-9----------------9-7-9--7-9---9-7h9--|
A|--------------7-8-9-----------------------------|
E|--7--7--------------5-7---7---------------------|

G|-------------------------|
D|-------9-7-9-------------|
A|-------------7-8-9-------|
E|--7--7-------------5-7\--|

G|---------------------------------------7--------|
D|-------9-7-9----------------9-7-9--7-9---9-7h9--|
A|--------------7-8-9-----------------------------|
E|--7--7--------------5-7---7---------------------|

G|-------------------------|
D|-------9-7-9-------------|
A|-------------7-8-9-------|
E|--7--7-------------5-7\--|

G|---------------------------------------7--------|
D|-------9-7-9----------------9-7-9--7-9---9-7h9--|
A|--------------7-8-9-----------------------------|
E|--7--7--------------5-7---7---------------------|

G|-------------------------|
D|-------9-7-9-------------|
A|-------------7-8-9-------|
E|--7--7-------------5-7~--|

Chorus
G|----------------7--------|
D|------------7-9---9-7h9--| x16
A|-------------------------|
E|--7~-xx7~-xx-------------|
Verse
G|--------------------------------------7--------|
D|-------9-7-9---------------9-7-9--7-9---9-7h9--|
A|-------------7-8-9-----------------------------|
E|--7--7-------------5-7---7---------------------|

G|-----------------------------------------|
D|-------9-7-9----------------7/9-9--------|
A|-------------7-8-9----------------7-8-9--|
E|--7--7-------------5-7\------------------|

G|--------------------------------------7--------|
D|-------9-7-9---------------9-7-9--7-9---9-7h9--|
A|-------------7-8-9-----------------------------|
E|--7--7-------------5-7---7---------------------|

G|---------------------------------------------|
D|-------9-7-9----------------7/9-9-7h9--------|
A|-------------7-8-9--------------------7h9----|
E|--7--7-------------5-7\-------------------7--|

G|--------------------------------------7--------|
D|-------9-7-9---------------9-7-9--7-9---9-7h9--|
A|-------------7-8-9-----------------------------|
E|--7--7-------------5-7---7---------------------|

G|---------------------------------------------|
D|-------9-7-9----------------7/9-9-7h9--------|
A|-------------7-8-9--------------------7h9----|
E|--7--7-------------5-7\-------------------7--|

G|---------------------------------------7--------|
D|-------9-7-9----------------9-7-9--7-9---9-7h9--|
A|--------------7-8-9-----------------------------|
E|--7--7--------------5-7---7---------------------|

G|-------------------------|
D|-------9-7-9-------------|
A|-------------7-8-9-------|
E|--7--7-------------5-7\--|

G|---------------------------------------7--------|
D|-------9-7-9----------------9-7-9--7-9---9-7h9--|
A|--------------7-8-9-----------------------------|
E|--7--7--------------5-7---7---------------------|

G|-------------------------|
D|-------9-7-9-------------|
A|-------------7-8-9-------|
E|--7--7-------------5-7~--|

Chorus
G|-------------------------|
D|------------9-7-9--------| x14
A|------------------7-8-9--|
E|--7~-xx7~-xx-------------|

Verse
G|--------------------------------------7--------|
D|-------9-7-9---------------9-7-9--7-9---9-7h9--|
A|-------------7-8-9-----------------------------|
E|--7--7-------------5-7---7---------------------|

G|---------------------------------------------|
D|-------9-7-9----------------7/9-9-7h9--------|
A|-------------7-8-9--------------------7h9----|
E|--7--7-------------5-7\-------------------7--|

G|---------------------------------------7--------|
D|-------9-7-9----------------9-7-9--7-9---9-7h9--|
A|--------------7-8-9-----------------------------|
E|--7--7--------------5-7---7---------------------|

G|-------------------------|
D|-------9-7-9-------------|
A|-------------7-8-9-------|
E|--7--7-------------5-7\--|

G|---------------------------------------7--------|
D|-------9-7-9----------------9-7-9--7-9---9-7h9--|
A|--------------7-8-9-----------------------------|
E|--7--7--------------5-7---7---------------------|

G|-------------------------|
D|-------9-7-9-------------|
A|-------------7-8-9-------|
E|--7--7-------------5-7\--|

Pre-Chorus
G|-----------|
D|-----------|
A|-----------|
E|--7-7-7-7--|

Chorus
G|-------------------------|
D|------------9-7-9--------| x12
A|------------------7-8-9--|
E|--7~-xx7~-xx-------------|

Outro
G|--------------------------------------7--------|
D|-------9-7-9---------------9-7-9--7-9---9-7h9--|
A|-------------7-8-9-----------------------------|
E|--7--7-------------5-7---7---------------------|

G|---------------------------------------------|
D|-------9-7-9----------------7/9-9-7h9--------|
A|-------------7-8-9--------------------7h9----|
E|--7--7-------------5-7\-------------------7--|

G|---------------------------------------7--------|
D|-------9-7-9----------------9-7-9--7-9---9-7h9--|
A|--------------7-8-9-----------------------------|
E|--7--7--------------5-7---7---------------------|

G|-------------------------|
D|-------9-7-9-------------|
A|-------------7-8-9-------|
E|--7--7-------------5-7\--|

G|--------------------------------------7--------|
D|-------9-7-9---------------9-7-9--7-9---9-7h9--|
A|-------------7-8-9-----------------------------|
E|--7--7-------------5-7---7---------------------|

G|---------------------------------------------|
D|-------9-7-9----------------7/9-9-7h9--------|
A|-------------7-8-9--------------------7h9----|
E|--7--7-------------5-7\-------------------7--|

G|---------------------------------------7--------|
D|-------9-7-9----------------9-7-9--7-9---9-7h9--|
A|--------------7-8-9-----------------------------|
E|--7--7--------------5-7---7---------------------|

G|-------------------------------------|
D|-------9-7-9-------------------------|
A|-------------7-8-9-------------------|
E|--7--7-------------5-7\----7\----7~--|


| /  slide up
| \  slide down
| h  hammer-on
| p  pull-off
| ~  let note ring
| +  harmonic
| x  Mute note
===============================================================================



Suggest correction
Give kudos to tab author, rate the tab!
1 2 3 4 5
comments
print report bad tab
guest
You may want to rate the tab now too:
select rating
Please do not post tabs as comments. Select "correction" instead!