Oops, an error
Loading. Please wait.

Rhime Animal Bass Tab

version 1
version 1

Intro

Whole song

Interactive

664 views 1 this week
no commentswrite comment
1 2 3 4 5
1 last vote to show rating
add to favorites
launch autoscroll
font size
0
reset
guitar tuner
Autoscroll
slow
fast
+/-
esc
set tempo
stop
Help us to improve Ultimate-Guitar.com Take our survey!
×
Difficulty
intermediate
my first tab... ahh... anyways its only the intro, SORRY. But, this is how it goes. Very 
song.

h=hammer on
s=slide

E|----------------------------------------7------------------------------------------------------|
A|-------9-7-9-----------------9-7-9--7-9---9-7h9----------9-7-9---------------------------------|
D|--------------7-8-9---------------------------------------------7-8-9--------------------------|
G|--7--7--------------5-7----7-------------------------7-7--------------5-7----------------------|

E|----------------------------------------7------------------------------------------------------|
A|-------9-7-9-----------------9-7-9--7-9---9-7h9----------9-7-9----------------7s9-9-7h9--------|
D|--------------7-8-9---------------------------------------------7-8-9-------------------7h9----|
G|--7--7--------------5-7----7-------------------------7-7--------------5-7-------------------7--|
Suggest correction
Give kudos to tab author, rate the tab!
1 2 3 4 5
comments
print report bad tab
guest
You may want to rate the tab now too:
select rating
Wanna post a correction for this tab? Suggest correction