Oops, an error
Loading. Please wait.

Rude Awakening Home Tab

2,095 views 1 this week
4 commentsread comments
1 2 3 4 5
please rate
add to favorites
launch autoscroll
font size
0
reset
how to read this tab
guitar tuner
Autoscroll
slow
fast
+/-
esc
set tempo
stop
Help us to improve Ultimate-Guitar.com Take our survey!
×
Riff 1

/ = Slide up
\ = Slide down

e------2--2---2-2-/-5---5-5--\--2-2--2---2-2-/-7---7-7--\--2-2--2---2-2-/-5---5-5--\--2-2--2---2-2-/-7---7-7--\--2-2->
B-----0---0---0-0---0---0-0-----0-0--0---0-0---0---0-0-----0-0--0---0-0---0---0-0-----0-0--0---0-0---0---0-0-----0-0->
G----0----0---0-0---0---0-0-----0-0--0---0-0---0---0-0-----0-0--0---0-0---0---0-0-----0-0--0---0-0---0---0-0-----0-0->
D---2-----2---2-2-/-5---5-5--\--2-2--2---2-2-/-7---7-7--\--2-2--2---2-2-/-5---5-5--\--2-2--2---2-2-/-7---7-7--\--2-2->
A-------------------------------------------------------------------------------------------------------------------->
E-------------------------------------------------------------------------------------------------------------------->

e---2---2-2-/-5---5-5--\--2-2--2---2-2-/-7---7-7--\--2-2--2---2-2-/-5---5-5--\--2-2--2---2-2--/--7---7-7--|
B---0---0-0---0---0-0-----0-0--0---0-0---0---0-0-----0-0--0---0-0---0---0-0-----0-0--0---0-0-----0---0-0--|
G---0---0-0---0---0-0-----0-0--0---0-0---0---0-0-----0-0--0---0-0---0---0-0-----0-0--0---0-0-----0---0-0--|
D---2---2-2-/-5---5-5--\--2-2--2---2-2-/-7---7-7--\--2-2--2---2-2-/-5---5-5--\--2-2--2---2-2--/--7---7-7--|
A---------------------------------------------------------------------------------------------------------|
E---------------------------------------------------------------------------------------------------------|


Riff 2

e------------------------------------7h8-7-----------------------------------7h8-7-->
B-----------------------------------------8---------------------------------------8->
G---------0------0--0-------0------0--------------0------0--0-------0------0-------->
D---0---0---------0--0----0---------------------0---------0--0----0----------------->
A-----3------3/5--------2------2/7------------3------3/5--------2------2/7---------->
E----------------------------------------------------------------------------------->


e------------------------------------7h8-7-----------------------------------7h8-7--|
B-----------------------------------------8---------------------------------------0-|
G---------0------0--0-------0------0--------------0------0--0-------0------0--------|
D---0---0---------0--0----0---------------------0---------0--0----0-----------------|
A-----3------3/5--------2------2/7------------3------3/5--------2------2/7----------|
E-----------------------------------------------------------------------------------|


Riff 3 (Played from..."I'm just a pilot here..." to "...a little bit harder than
before")

e---------------------------------------------------------------------------|
B-------------------------------------------------------------------------0-|
G-------0------0--0-------0------0--0--------0------0--0-------0--------0---|
D-----0---------0--0----0---------0--0-----0---------0--0----0--------0-----|
A---3------3/5--------2------2/7---------3------3/5--------2------2/7-------|
E---------------------------------------------------------------------------|


Riff 4 (From "And I, think that this might be the day..." to "...it'd be a great
day for a rude awakening")

e------------------------------------------------------------------>
B------------------------------------------------------------------>
G-------0----0--0-------0----0--0-------0----0--0-------0----0--0-->
D-----0-------0--0----0-------0--0----0-------0--0----0-------0--0->
A---5------7--------3------5--------5------7--------3------5------->
E------------------------------------------------------------------>


e------------------------------------------------------------------|
B------------------------------------------------------------------|
G-------0----0--0-------0----0--0-------0----0--0-------0----0--0--|
D-----0-------0--0----0-------0--0----0-------0--0----0-------0--0-|
A---5------7--------3------5--------5------7--------3------5-------|
E------------------------------------------------------------------|


Riff 3 (From "And awaken yourself tonight..." to "...yeah we could be anything")

e----------------------------------------------------------------------------->
B-------------------------------------------------------------------------0--->
G-------0------0--0-------0------0--0--------0------0--0-------0--------0----->
D-----0---------0--0----0---------0--0-----0---------0--0----0--------0------->
A---3------3/5--------2------2/7---------3------3/5--------2------2/7--------->
E----------------------------------------------------------------------------->


e---------------------------------------------------------------------------|
B-------------------------------------------------------------------------0-|
G-------0------0--0-------0------0--0--------0------0--0-------0--------0---|
D-----0---------0--0----0---------0--0-----0---------0--0----0--------0-----|
A---3------3/5--------2------2/7---------3------3/5--------2------2/7-------|
E---------------------------------------------------------------------------|


Riff 5 (From "And we are all lined up when you're ready..." to "..and we'll
finally know the truth")


e---0---0-0-0-0---0---0-0-0-0-0-0---0---0-3---3---3-3-3-0---0-0-0-0---0---0-0-0-0-0-0---0---0-3---3---3-3-3-0---0-0-0->
B---0---0-0-0-1---1---1-1-1-1-1-1---1---1-1---1---1-1-1-0---0-0-0-1---1---1-1-1-1-1-1---1---1-1---1---1-1-1-0---0-0-0->
G---0---0-0-0-2---2---2-2-2-2-0-0---0---0-0---0---0-0-0-0---0-0-0-2---2---2-2-2-2-0-0---0---0-0---0---0-0-0-0---0-0-0->
D---0---0-0-0-2---2---2-2-2-2-2-2---2---2-2---2---2-2-2-0---0-0-0-2---2---2-2-2-2-2-2---2---2-2---2---2-2-2-0---0-0-0->
A---2---2-2-2-0---0---0-0-0-0-0-2/3-3---3-3---3---3-3-3-2---2-2-2-0---0---0-0-0-0-0-2/3-3---3-3---3---3-3-3-2---2-2-2->
E---3---3-3-3-------------------------------------------3---3-3-3-------------------------------------------3---3-3-3->

e---0---0-0-0-0---0---0-0-0-0-0-0---0---0-3---3---3-3-3->
B---0---0-0-0-1---1---1-1-1-1-1-1---1---1-1---1---1-1-1->
G---0---0-0-0-2---2---2-2-2-2-0-0---0---0-0---0---0-0-0->
D---0---0-0-0-2---2---2-2-2-2-2-2---2---2-2---2---2-2-2->
A---2---2-2-2-0---0---0-0-0-0-0-2/3-3---3-3---3---3-3-3->
E---3---3-3-3------------------------------------------->

e---0---0-0-0-0---0---0-0-0-0-0-0-0-0-0-0-0-0-0-0---0---0-0---0---0-0-0-0-0-0--0--0--0-|
B---0---0-0-0-1---1---1-1-1-1-1-1-1-1-1-1-1-1-1-1---1---1-1---1---1-1-1-1-1-1--1--1--1-|
G---0---0-0-0-2---2---2-2-2-2-2-2-2-2-2-2-2-2-0-0---0---0-0---0---0-0-0-0-0-0--0--0--0-|
D---0---0-0-0-2---2---2-2-2-2-2-2-2-2-2-2-2-2-2-2---2---2-2---2---2-2-2-2-2-2--2--2--2-|
A---2---2-2-2-0---0---0-0-0-0-0-0-0-0-0-0-0-0-0-3---3---3-3---3---3-3-3-3-3-3--3--3--3-|
E---3---3-3-3--------------------------------------------------------------------------|


Riff 2 (From "The truth..." to right before Trevor comes in with vocals again)

e------------------------------------7h8-7-----------------------------------7h8-7-->
B-----------------------------------------8---------------------------------------8->
G---------0------0--0-------0------0--------------0------0--0-------0------0-------->
D---0---0---------0--0----0---------------------0---------0--0----0----------------->
A-----3------3/5--------2------2/7------------3------3/5--------2------2/7---------->
E----------------------------------------------------------------------------------->


e------------------------------------7h8-7-----------------------------------7h8-7--|
B-----------------------------------------8---------------------------------------0-|
G---------0------0--0-------0------0--------------0------0--0-------0------0--------|
D---0---0---------0--0----0---------------------0---------0--0----0-----------------|
A-----3------3/5--------2------2/7------------3------3/5--------2------2/7----------|
E-----------------------------------------------------------------------------------|

Riff 3 (From "Now we wait for you..." to "...yeah we could be anything")

e----------------------------------------------------------------------------->
B-------------------------------------------------------------------------0--->
G-------0------0--0-------0------0--0--------0------0--0-------0--------0----->
D-----0---------0--0----0---------0--0-----0---------0--0----0--------0------->
A---3------3/5--------2------2/7---------3------3/5--------2------2/7--------->
E----------------------------------------------------------------------------->


e----------------------------------------------------------------------------->
B-------------------------------------------------------------------------0--->
G-------0------0--0-------0------0--0--------0------0--0-------0--------0----->
D-----0---------0--0----0---------0--0-----0---------0--0----0--------0------->
A---3------3/5--------2------2/7---------3------3/5--------2------2/7--------->
E----------------------------------------------------------------------------->


e----------------------------------------------------------------------------->
B-------------------------------------------------------------------------0--->
G-------0------0--0-------0------0--0--------0------0--0-------0--------0----->
D-----0---------0--0----0---------0--0-----0---------0--0----0--------0------->
A---3------3/5--------2------2/7---------3------3/5--------2------2/7--------->
E----------------------------------------------------------------------------->


e---------------------------------------------------------------------------|
B-------------------------------------------------------------------------0-|
G-------0------0--0-------0------0--0--------0------0--0-------0--------0---|
D-----0---------0--0----0---------0--0-----0---------0--0----0--------0-----|
A---3------3/5--------2------2/7---------3------3/5--------2------2/7-------|
E---------------------------------------------------------------------------|


Riff 5 (From "And we are all lined up when you're ready..." to "...we'll finally
know the truth")


e---0---0-0-0-0---0---0-0-0-0-0-0---0---0-3---3---3-3-3-0---0-0-0-0---0---0-0-0-0-0-0---0---0-3---3---3-3-3-0---0-0-0->
B---0---0-0-0-1---1---1-1-1-1-1-1---1---1-1---1---1-1-1-0---0-0-0-1---1---1-1-1-1-1-1---1---1-1---1---1-1-1-0---0-0-0->
G---0---0-0-0-2---2---2-2-2-2-0-0---0---0-0---0---0-0-0-0---0-0-0-2---2---2-2-2-2-0-0---0---0-0---0---0-0-0-0---0-0-0->
D---0---0-0-0-2---2---2-2-2-2-2-2---2---2-2---2---2-2-2-0---0-0-0-2---2---2-2-2-2-2-2---2---2-2---2---2-2-2-0---0-0-0->
A---2---2-2-2-0---0---0-0-0-0-0-2/3-3---3-3---3---3-3-3-2---2-2-2-0---0---0-0-0-0-0-2/3-3---3-3---3---3-3-3-2---2-2-2->
E---3---3-3-3-------------------------------------------3---3-3-3-------------------------------------------3---3-3-3->

e---0---0-0-0-0---0---0-0-0-0-0-0---0---0-3---3---3-3-3->
B---0---0-0-0-1---1---1-1-1-1-1-1---1---1-1---1---1-1-1->
G---0---0-0-0-2---2---2-2-2-2-0-0---0---0-0---0---0-0-0->
D---0---0-0-0-2---2---2-2-2-2-2-2---2---2-2---2---2-2-2->
A---2---2-2-2-0---0---0-0-0-0-0-2/3-3---3-3---3---3-3-3->
E---3---3-3-3------------------------------------------->

e---0---0-0-0-0---0---0-0-0-0-0-0-0-0-0-0-0-0-0-0---0---0-0---0---0-0-0-0-0-0--0--0--0-|
B---0---0-0-0-1---1---1-1-1-1-1-1-1-1-1-1-1-1-1-1---1---1-1---1---1-1-1-1-1-1--1--1--1-|
G---0---0-0-0-2---2---2-2-2-2-2-2-2-2-2-2-2-2-0-0---0---0-0---0---0-0-0-0-0-0--0--0--0-|
D---0---0-0-0-2---2---2-2-2-2-2-2-2-2-2-2-2-2-2-2---2---2-2---2---2-2-2-2-2-2--2--2--2-|
A---2---2-2-2-0---0---0-0-0-0-0-0-0-0-0-0-0-0-0-3---3---3-3---3---3-3-3-3-3-3--3--3--3-|
E---3---3-3-3--------------------------------------------------------------------------|


Riff 6 (From "Truth..." to "..try a little bit harder than before")

e------------------------------------------------------------------->
B------------------------------------------------------------------->
G-----0---0---0---0---0---0---0---0---0---0---0---0---0---0---0---0->
D------------------------------------------------------------------->
A---2---2---2---2-/-3---3---3---3-/-5---5---5---5-/-7---7---7---7-\->
E------------------------------------------------------------------->


e------------------------------------------------------------------->
B------------------------------------------------------------------->
G-----0---0---0---0---0---0---0---0---0---0---0---0---0---0---0---0->
D------------------------------------------------------------------->
A---2---2---2---2-/-3---3---3---3-/-5---5---5---5-/-7---7---7---7-\->
E------------------------------------------------------------------->

e------------------------------------------------------------------->
B------------------------------------------------------------------->
G-----0---0---0---0---0---0---0---0---0---0---0---0---0---0---0---0->
D------------------------------------------------------------------->
A---2---2---2---2-/-3---3---3---3-/-5---5---5---5-/-7---7---7---7-\->
E------------------------------------------------------------------->


e-------------------------------------------------------------------|
B-------------------------------------------------------------------|
G-----0---0---0---0---0---0---0---0---0---0---0---0---0---0---0---0-|
D-------------------------------------------------------------------|
A---2---2---2---2-/-3---3---3---3-/-5---5---5---5-/-7---7---7---7-\-|
E-------------------------------------------------------------------|


Riff 4 (From "And I think that this might be the day..." to "...it'd be a great
day for a rude awakening")

e------------------------------------------------------------------>
B------------------------------------------------------------------>
G-------0----0--0-------0----0--0-------0----0--0-------0----0--0-->
D-----0-------0--0----0-------0--0----0-------0--0----0-------0--0->
A---5------7--------3------5--------5------7--------3------5------->
E------------------------------------------------------------------>


e------------------------------------------------------------------|
B------------------------------------------------------------------|
G-------0----0--0-------0----0--0-------0----0--0-------0----0--0--|
D-----0-------0--0----0-------0--0----0-------0--0----0-------0--0-|
A---5------7--------3------5--------5------7--------3------5-------|
E------------------------------------------------------------------|


Riff 3 (From "And awaken yourself tonight..." to "...we could be anything")

e----------------------------------------------------------------------------->
B-------------------------------------------------------------------------0--->
G-------0------0--0-------0------0--0--------0------0--0-------0--------0----->
D-----0---------0--0----0---------0--0-----0---------0--0----0--------0------->
A---3------3/5--------2------2/7---------3------3/5--------2------2/7--------->
E----------------------------------------------------------------------------->


e---------------------------------------------------------------------------|
B-------------------------------------------------------------------------0-|
G-------0------0--0-------0------0--0--------0------0--0-------0--------0---|
D-----0---------0--0----0---------0--0-----0---------0--0----0--------0-----|
A---3------3/5--------2------2/7---------3------3/5--------2------2/7-------|
E---------------------------------------------------------------------------|


Riff 5 (From "And we are all lined up when you're ready..." to THE END)


e---0---0-0-0-0---0---0-0-0-0-0-0---0---0-3---3---3-3-3-0---0-0-0-0---0---0-0-0-0-0-0---0---0-3---3---3-3-3-0---0-0-0->
B---0---0-0-0-1---1---1-1-1-1-1-1---1---1-1---1---1-1-1-0---0-0-0-1---1---1-1-1-1-1-1---1---1-1---1---1-1-1-0---0-0-0->
G---0---0-0-0-2---2---2-2-2-2-0-0---0---0-0---0---0-0-0-0---0-0-0-2---2---2-2-2-2-0-0---0---0-0---0---0-0-0-0---0-0-0->
D---0---0-0-0-2---2---2-2-2-2-2-2---2---2-2---2---2-2-2-0---0-0-0-2---2---2-2-2-2-2-2---2---2-2---2---2-2-2-0---0-0-0->
A---2---2-2-2-0---0---0-0-0-0-0-2/3-3---3-3---3---3-3-3-2---2-2-2-0---0---0-0-0-0-0-2/3-3---3-3---3---3-3-3-2---2-2-2->
E---3---3-3-3-------------------------------------------3---3-3-3-------------------------------------------3---3-3-3->


e---0---0-0-0-0---0---0-0-0-0-0-0---0---0-3---3---3-3-3-0---0-0-0-0---0---0-0-0-0-0-0---0---0-3---3---3-3-3-0---0-0-0->
B---0---0-0-0-1---1---1-1-1-1-1-1---1---1-1---1---1-1-1-0---0-0-0-1---1---1-1-1-1-1-1---1---1-1---1---1-1-1-0---0-0-0->
G---0---0-0-0-2---2---2-2-2-2-0-0---0---0-0---0---0-0-0-0---0-0-0-2---2---2-2-2-2-0-0---0---0-0---0---0-0-0-0---0-0-0->
D---0---0-0-0-2---2---2-2-2-2-2-2---2---2-2---2---2-2-2-0---0-0-0-2---2---2-2-2-2-2-2---2---2-2---2---2-2-2-0---0-0-0->
A---2---2-2-2-0---0---0-0-0-0-0-2/3-3---3-3---3---3-3-3-2---2-2-2-0---0---0-0-0-0-0-2/3-3---3-3---3---3-3-3-2---2-2-2->
E---3---3-3-3-------------------------------------------3---3-3-3-------------------------------------------3---3-3-3->

e---0---0-0-0-0---0---0-0-0-0-0-0---0---0-3---3---3-3-3-0---0-0-0-0---0---0-0-0-0-0-0---0---0-3---3---3-3-3-0---0-0-0->
B---0---0-0-0-1---1---1-1-1-1-1-1---1---1-1---1---1-1-1-0---0-0-0-1---1---1-1-1-1-1-1---1---1-1---1---1-1-1-0---0-0-0->
G---0---0-0-0-2---2---2-2-2-2-0-0---0---0-0---0---0-0-0-0---0-0-0-2---2---2-2-2-2-0-0---0---0-0---0---0-0-0-0---0-0-0->
D---0---0-0-0-2---2---2-2-2-2-2-2---2---2-2---2---2-2-2-0---0-0-0-2---2---2-2-2-2-2-2---2---2-2---2---2-2-2-0---0-0-0->
A---2---2-2-2-0---0---0-0-0-0-0-2/3-3---3-3---3---3-3-3-2---2-2-2-0---0---0-0-0-0-0-2/3-3---3-3---3---3-3-3-2---2-2-2->
E---3---3-3-3-------------------------------------------3---3-3-3-------------------------------------------3---3-3-3->

e---0---0-0-0-0---0---0-0-0-0-0-0---0---0-3---3---3-3-3-0---0-0-0-0---0---0-0-0-0-0-0---0---0-3---3---3-3-3-0---0-0-0->
B---0---0-0-0-1---1---1-1-1-1-1-1---1---1-1---1---1-1-1-0---0-0-0-1---1---1-1-1-1-1-1---1---1-1---1---1-1-1-0---0-0-0->
G---0---0-0-0-2---2---2-2-2-2-0-0---0---0-0---0---0-0-0-0---0-0-0-2---2---2-2-2-2-0-0---0---0-0---0---0-0-0-0---0-0-0->
D---0---0-0-0-2---2---2-2-2-2-2-2---2---2-2---2---2-2-2-0---0-0-0-2---2---2-2-2-2-2-2---2---2-2---2---2-2-2-0---0-0-0->
A---2---2-2-2-0---0---0-0-0-0-0-2/3-3---3-3---3---3-3-3-2---2-2-2-0---0---0-0-0-0-0-2/3-3---3-3---3---3-3-3-2---2-2-2->
E---3---3-3-3-------------------------------------------3---3-3-3-------------------------------------------3---3-3-3->

e---0---0-0-0-0---0---0-0-0-0-0-0---0---0-3---3---3-3-3-0---0-0-0-0---0---0-0-0-0-0-0---0---0-3---3---3-3-3-0---0-0-0->
B---0---0-0-0-1---1---1-1-1-1-1-1---1---1-1---1---1-1-1-0---0-0-0-1---1---1-1-1-1-1-1---1---1-1---1---1-1-1-0---0-0-0->
G---0---0-0-0-2---2---2-2-2-2-0-0---0---0-0---0---0-0-0-0---0-0-0-2---2---2-2-2-2-0-0---0---0-0---0---0-0-0-0---0-0-0->
D---0---0-0-0-2---2---2-2-2-2-2-2---2---2-2---2---2-2-2-0---0-0-0-2---2---2-2-2-2-2-2---2---2-2---2---2-2-2-0---0-0-0->
A---2---2-2-2-0---0---0-0-0-0-0-2/3-3---3-3---3---3-3-3-2---2-2-2-0---0---0-0-0-0-0-2/3-3---3-3---3---3-3-3-2---2-2-2->
E---3---3-3-3-------------------------------------------3---3-3-3-------------------------------------------3---3-3-3->

e---0---0-0-0-0---0---0-0-0-0-0-0---0---0-3---3---3-3-3-0---0-0-0-0---0---0-0-0-0-0-0---0---0-3---3---3-3-3-0---0-0-0-|
B---0---0-0-0-1---1---1-1-1-1-1-1---1---1-1---1---1-1-1-0---0-0-0-1---1---1-1-1-1-1-1---1---1-1---1---1-1-1-0---0-0-0-|
G---0---0-0-0-2---2---2-2-2-2-0-0---0---0-0---0---0-0-0-0---0-0-0-2---2---2-2-2-2-0-0---0---0-0---0---0-0-0-0---0-0-0-|
D---0---0-0-0-2---2---2-2-2-2-2-2---2---2-2---2---2-2-2-0---0-0-0-2---2---2-2-2-2-2-2---2---2-2---2---2-2-2-0---0-0-0-|
A---2---2-2-2-0---0---0-0-0-0-0-2/3-3---3-3---3---3-3-3-2---2-2-2-0---0---0-0-0-0-0-2/3-3---3-3---3---3-3-3-2---2-2-2-|
E---3---3-3-3-------------------------------------------3---3-3-3-------------------------------------------3---3-3-3-|


I'm just a pilot here,
In things not always as they seem,
Try a little bit harder now,
Little bit harder than before,
And I think that this might be
The day that nobody,
Nobody comes home,
And I
Supposed to be
A great day for a rude awakening


(chorus)
Awaken yourself tonight.
Open up your eyes,
There's no way to hide
And awaken,
'Cause it's alright,
We could be anything,
Yeah, we could be anything.
And we are,
All lined up when You're ready
And we are,
So much closer now.
And we are,
About to blow history wide open.
And we will,
Finally know the truth
About You


And I will wait for You,
For all of eternity through,
'Cause I never been the same now
Ever since You called out my name now
Please,
Take me as I am
A simple man
Takin my stand now
Can't you feel it
'Cause it's so real
And it's so revealin'


(chorus)

(verse 1)

(chorus)
Suggest correction
Give kudos to tab author, rate the tab!
1 2 3 4 5
comments
print report bad tab
4 comments total. Showing first comments.
0 reply
codester 10 wrote on July 9 2005, 12:00 am

this tab completely helped me out with the song

0 reply
belinda 10 wrote on June 8 2006, 09:18 pm

what album is this from?

0 reply
b0nz0sm0ntreaux 10 wrote on August 18 2006, 10:05 am

unreleased i think....by far their best song rythmically

guest
You may want to rate the tab now too:
select rating
Wanna post a correction for this tab? Suggest correction