Oops, an error
Loading. Please wait.

Running With Giants tab

3,385 views 27 this week
1 commentread comment
1 2 3 4 5
x 5
add to favorites
×
Save as Personal and add changes to this tab that will be seen only by you. Learn more ›
×
You can save this tab as Personal to edit and correct it or add notes. All changes will be seen only by you. Learn more »
launch autoscroll
font size
0
reset
how to read this tab
guitar tuner
edit
Autoscroll
slow
fast
+/-
esc
set tempo
stop
Michael Glodoski
iamnumber12@live.com

Tuning Drop B
Artist: Thousand Foot Krutch B F#B E G# C#

Guitar 1 (Drop B)

Intro
C#--------------------------------------------------------------------------------------------|
G#--------------------------------------------------------------------------------------------|
E---------------------------------------------------------------------------------------------|
B------------3-------5-------8-------7-------3-5--------3-------5-------8-------7--0--3--0--1-|
F#-----------3-------5-------8-------7-------3-5--------3-------5-------8-------7--0--3--0--1-|
B--12/--0-0--3--0-0--5--0-0--8--0-0--7--0-0--3-5--0--0--3--0-0--5--0-0--8--0-0--7--0--3--0--1-|
        * *     * *     * *     * *     * *       *  *     * *     * *     * *
C#-----------------------------------------------------------------------------------|
G#-----------------------------------------------------------------------------------|
E------------------------------------------------------------------------------------|
B-------3-------5-------8-------7-0-0-1-0-------8-------7-------5---------7--3--2--0-|
F#------3-------5-------8-------7-0-0-1-0-------8-------7-------5---------7--3--2--0-|
B--0-0--3--0-0--5--0-0--8--0-0--7-0-0-1-0--0-0--8--0-0--7--0-0--5--0-0-0--7--3--2--0-|
   * *     * *     * *     * *             * *     * *     * *     * * *

Verse 1
C#---------------------------------------------------------------------------------------|
G#---------------------------------------------------------------------------------------|
E----------------------------------------------------------------------------------------|
B-----------------------------------------------------------------------------------5--8-|
F#-0-0--0-0--0-0--0--8--5--7--0-0--0-0--0-0--0--7--3--1--0-0--0-0--0-0--0--8--5--7--5--8-|
B--0-0--0-0--0-0--0--8--5--7--0-0--0-0--0-0--0--7--3--1--0-0--0-0--0-0--0--8--5--7--5--8-|
   * *  * *  * *  *  *  *  *  * *  * *  * *  *  *  *  *  * *  * *  * *  *  *  *  *
C#---------------------------------------------------------------------------------------|
G#---------------------------------------------------------------------------------------|
E----------------------------------------------------------------------------------------|
B-----------------------------------------------------------------------------------5--8-|
F#-0-0--0-0--0-0--0--8--5--7--0-0--0-0--0-0--0--7--3--1--0-0--0-0--0-0--0--8--5--7--5--8-|
B--0-0--0-0--0-0--0--8--5--7--0-0--0-0--0-0--0--7--3--1--0-0--0-0--0-0--0--8--5--7--5--8-|
   * *  * *  * *  *  *  *  *  * *  * *  * *  *  *  *  *  * *  * *  * *  *  *  *  *

Pre-Chorus 1
C#------------------------------------------------------------------------------------------------------|
G#------------------------------------------------------------------------------------------------------|
E-------------------------------------------------------------------------------------------------------|
B-------------------------------------------------------------------------------------------------------|
F#-0-0-0-0-0-0-0-0--3-3-3-3-3-3-3-3--5-5-5-5-5-5-5-5--0-0-0-0-0-0-0-0--0-0-0-0-0-0-0-0--3-3-3-3-3-3-3-3-|
B--0-0-0-0-0-0-0-0--3-3-3-3-3-3-3-3--5-5-5-5-5-5-5-5--0-0-0-0-0-0-0-0--0-0-0-0-0-0-0-0--3-3-3-3-3-3-3-3-|
   * * * * * * * *  * * * * * * * *  * * * * * * * *  * * * * * * * *  * * * * * * * *  * * * * * * * *
C#------------------------|
G#------------------------|
E-------------------------|
B-------------------X-X-X-|
F#-5-5-5-5-5-5-5-5--x-x-x-|
B--5-5-5-5-5-5-5-5--x-x-x-|
   * * * * * * * *

Chorus 1
C#----------------------------------------------------------------------------------------------------|
G#----------------------------------------------------------------------------------------------------|
E-----------------------------------------------------------------------------------------------------|
B--8-8--8-8-8--8-8-8--8-8-8-7--5-5--5-5-5--5-5-5--5-5-5-5-5--0--3--0--1--0--3--0--0--3--0--1--0--1--3-|
F#-8-8--8-8-8--8-8-8--8-8-8-7--5-5--5-5-5--5-5-5--5-5-5-5-5--0--3--0--1--0--3--0--0--3--0--1--0--1--3-|
B--8-8--8-8-8--8-8-8--8-8-8-7--5-5--5-5-5--5-5-5--5-5-5-5-5--0--3--0--1--0--3--0--0--3--0--1--0--1--3-| 

C#----------------------------------------------------------------------------------------------------|
G#----------------------------------------------------------------------------------------------------|
E-----------------------------------------------------------------------------------------------------|
B--8-8--8-8-8--8-8-8--8-8-8-7--5-5--5-5-5--5-5-5--5-5-5-5-5--0--3--0--1--0--3--0--0--3--0--1--0--1--3-|
F#-8-8--8-8-8--8-8-8--8-8-8-7--5-5--5-5-5--5-5-5--5-5-5-5-5--0--3--0--1--0--3--0--0--3--0--1--0--1--3-|
B--8-8--8-8-8--8-8-8--8-8-8-7--5-5--5-5-5--5-5-5--5-5-5-5-5--0--3--0--1--0--3--0--0--3--0--1--0--1--3-| 

C#----------------------------------------------------------------------------------------------------|
G#----------------------------------------------------------------------------------------------------|
E-----------------------------------------------------------------------------------------------------|
B--8-8--8-8-8--8-8-8--8-8-8-7--5-5--5-5-5--5-5-5--5-5-5-5-5--0--3--0--1--0--3--0--0--3--0--1--0--1--3-|
F#-8-8--8-8-8--8-8-8--8-8-8-7--5-5--5-5-5--5-5-5--5-5-5-5-5--0--3--0--1--0--3--0--0--3--0--1--0--1--3-|
B--8-8--8-8-8--8-8-8--8-8-8-7--5-5--5-5-5--5-5-5--5-5-5-5-5--0--3--0--1--0--3--0--0--3--0--1--0--1--3-| 

C#----------------------------------------------------------------------------------------------------|
G#----------------------------------------------------------------------------------------------------|
E-----------------------------------------------------------------------------------------------------|
B--8-8--8-8-8--8-8-8--8-8-8-7--5-5--5-5-5--5-5-5--5-5-5-5-5--0--3--0--1--0--3--0--0--3--0--1--0--1--3-|
F#-8-8--8-8-8--8-8-8--8-8-8-7--5-5--5-5-5--5-5-5--5-5-5-5-5--0--3--0--1--0--3--0--0--3--0--1--0--1--3-|
B--8-8--8-8-8--8-8-8--8-8-8-7--5-5--5-5-5--5-5-5--5-5-5-5-5--0--3--0--1--0--3--0--0--3--0--1--0--1--3-|

C#-------------------------------------------|
G#-------------------------------------------|
E--------------------------------------------|
B--0--3--0--1--0--3--0--0--3--0--6--5--3--00-|
F#-0--3--0--1--0--3--0--0--3--0--6--5--3--00-|
B--0--3--0--1--0--3--0--0--3--0--6--5--3--00-|

Interlude
C#---------------------------------------------------------------------------------------|
G#---------------------------------------------------------------------------------------|
E----------------------------------------------------------------------------------------|
B-------3-------5-------8-------7-------3-5--------3-------5-------8-------7--0--3--0--1-|
F#------3-------5-------8-------7-------3-5--------3-------5-------8-------7--0--3--0--1-|
B--0-0--3--0-0--5--0-0--8--0-0--7--0-0--3-5--0--0--3--0-0--5--0-0--8--0-0--7--0--3--0--1-|
        * *     * *     * *     * *     * *       *  *    -* *     * *     * *
C#-----------------------------------------------------------------------------------|
G#-----------------------------------------------------------------------------------|
E------------------------------------------------------------------------------------|
B-------3-------5-------8-------7-0-0-1-0-------8-------7-------5---------7--3--2--0-|
F#------3-------5-------8-------7-0-0-1-0-------8-------7-------5---------7--3--2--0-|
B--0-0--3--0-0--5--0-0--8--0-0--7-0-0-1-0--0-0--8--0-0--7--0-0--5--0-0-0--7--3--2--0-|
   * *     * *     * *     * *             * *     * *     * *     * * *

Verse 2
C#---------------------------------------------------------------------------------------|
G#---------------------------------------------------------------------------------------|
E----------------------------------------------------------------------------------------|
B-----------------------------------------------------------------------------------5--8-|
F#-0-0--0-0--0-0--0--8--5--7--0-0--0-0--0-0--0--7--3--1--0-0--0-0--0-0--0--8--5--7--5--8-|
B--0-0--0-0--0-0--0--8--5--7--0-0--0-0--0-0--0--7--3--1--0-0--0-0--0-0--0--8--5--7--5--8-|
   * *  * *  * *  *  *  *  *  * *  * *  * *  *  *  *  *  * *  * *  * *  *  *  *  *
C#---------------------------------------------------------------------------------------|
G#---------------------------------------------------------------------------------------|
E----------------------------------------------------------------------------------------|
B-----------------------------------------------------------------------------------5--8-|
F#-0-0--0-0--0-0--0--8--5--7--0-0--0-0--0-0--0--7--3--1--0-0--0-0--0-0--0--8--5--7--5--8-|
B--0-0--0-0--0-0--0--8--5--7--0-0--0-0--0-0--0--7--3--1--0-0--0-0--0-0--0--8--5--7--5--8-|
   * *  * *  * *  *  *  *  *  * *  * *  * *  *  *  *  *  * *  * *  * *  *  *  *  *

Pre-Chorus 2
C#------------------------------------------------------------------------------------------------------|
G#------------------------------------------------------------------------------------------------------|
E-------------------------------------------------------------------------------------------------------|
B-------------------------------------------------------------------------------------------------------|
F#-0-0-0-0-0-0-0-0--3-3-3-3-3-3-3-3--5-5-5-5-5-5-5-5--0-0-0-0-0-0-0-0--0-0-0-0-0-0-0-0--3-3-3-3-3-3-3-3-|
B--0-0-0-0-0-0-0-0--3-3-3-3-3-3-3-3--5-5-5-5-5-5-5-5--0-0-0-0-0-0-0-0--0-0-0-0-0-0-0-0--3-3-3-3-3-3-3-3-|
   * * * * * * * *  * * * * * * * *  * * * * * * * *  * * * * * * * *  * * * * * * * *  * * * * * * * *
C#------------------------|
G#------------------------|
E-------------------------|
B------5-5-5-5-5-5--x-x-x-|
F#-5-5-5-5-5-5-5-5--x-x-x-|
B--5-5-5-5-5-5-5-5--x-x-x-|
   * *

Chorus 2
C#----------------------------------------------------------------------------------------------------|
G#----------------------------------------------------------------------------------------------------|
E-----------------------------------------------------------------------------------------------------|
B--8-8--8-8-8--8-8-8--8-8-8-7--5-5--5-5-5--5-5-5--5-5-5-5-5--0--3--0--1--0--3--0--0--3--0--1--0--1--3-|
F#-8-8--8-8-8--8-8-8--8-8-8-7--5-5--5-5-5--5-5-5--5-5-5-5-5--0--3--0--1--0--3--0--0--3--0--1--0--1--3-|
B--8-8--8-8-8--8-8-8--8-8-8-7--5-5--5-5-5--5-5-5--5-5-5-5-5--0--3--0--1--0--3--0--0--3--0--1--0--1--3-| 

C#----------------------------------------------------------------------------------------------------|
G#----------------------------------------------------------------------------------------------------|
E-----------------------------------------------------------------------------------------------------|
B--8-8--8-8-8--8-8-8--8-8-8-7--5-5--5-5-5--5-5-5--5-5-5-5-5--0--3--0--1--0--3--0--0--3--0--1--0--1--3-|
F#-8-8--8-8-8--8-8-8--8-8-8-7--5-5--5-5-5--5-5-5--5-5-5-5-5--0--3--0--1--0--3--0--0--3--0--1--0--1--3-|
B--8-8--8-8-8--8-8-8--8-8-8-7--5-5--5-5-5--5-5-5--5-5-5-5-5--0--3--0--1--0--3--0--0--3--0--1--0--1--3-| 

C#----------------------------------------------------------------------------------------------------|
G#----------------------------------------------------------------------------------------------------|
E-----------------------------------------------------------------------------------------------------|
B--8-8--8-8-8--8-8-8--8-8-8-7--5-5--5-5-5--5-5-5--5-5-5-5-5--0--3--0--1--0--3--0--0--3--0--1--0--1--3-|
F#-8-8--8-8-8--8-8-8--8-8-8-7--5-5--5-5-5--5-5-5--5-5-5-5-5--0--3--0--1--0--3--0--0--3--0--1--0--1--3-|
B--8-8--8-8-8--8-8-8--8-8-8-7--5-5--5-5-5--5-5-5--5-5-5-5-5--0--3--0--1--0--3--0--0--3--0--1--0--1--3-| 

C#----------------------------------------------------------------------------------------------------|
G#----------------------------------------------------------------------------------------------------|
E-----------------------------------------------------------------------------------------------------|
B--8-8--8-8-8--8-8-8--8-8-8-7--5-5--5-5-5--5-5-5--5-5-5-5-5--0--3--0--1--0--3--0--0--3--0--1--0--1--3-|
F#-8-8--8-8-8--8-8-8--8-8-8-7--5-5--5-5-5--5-5-5--5-5-5-5-5--0--3--0--1--0--3--0--0--3--0--1--0--1--3-|
B--8-8--8-8-8--8-8-8--8-8-8-7--5-5--5-5-5--5-5-5--5-5-5-5-5--0--3--0--1--0--3--0--0--3--0--1--0--1--3-|

C#-----------------------------------------------|
G#-----------------------------------------------|
E------------------------------------------------|
B--0--3--0--1--0--3--0--0--3--0--6--5--3--5--0-0-|
F#-0--3--0--1--0--3--0--0--3--0--6--5--3--5--0-0-|
B--0--3--0--1--0--3--0--0--3--0--6--5--3--5--0-0-|
                     
 
Bridge:
C#-----------------------------------------------------------------------------------------------------------|
G#-----------------------------------------------------------------------------------------------------------|
E------------------------------------------------------------------------------------------------------------|
B------------------------------------------------------------------------------------------------------------|
F#-----------------------------------------------------------------------------------------------------------|
B-x-x--0--7--3--x-x--2-3-2-0--x--0--7--3--x-x--5-3-2-3--x-x--0--7--3--x-x--2-3-2-0--x--0--7--3--x-x--5-3-2-3-|


C#-------------------------------------------------------------------------|
G#-------------------------------------------------------------------------|
E--------------------------------------------------------------------------|
B--------------------------------------------------------------------------|
F#-------------------------------------------------------------------------|
B---0--7--3--2-3-2-0--0--7--3--5-3-2-3--0--7--3--2-3-2-0--0--7--3--5-3-2-3-|

Chorus 3
C#----------------------------------------------------------------------------------------------------|
G#----------------------------------------------------------------------------------------------------|
E-----------------------------------------------------------------------------------------------------|
B--8-8--8-8-8--8-8-8--8-8-8-7--5-5--5-5-5--5-5-5--5-5-5-5-5--0--3--0--1--0--3--0--0--3--0--1--0--1--3-|
F#-8-8--8-8-8--8-8-8--8-8-8-7--5-5--5-5-5--5-5-5--5-5-5-5-5--0--3--0--1--0--3--0--0--3--0--1--0--1--3-|
B--8-8--8-8-8--8-8-8--8-8-8-7--5-5--5-5-5--5-5-5--5-5-5-5-5--0--3--0--1--0--3--0--0--3--0--1--0--1--3-| 

C#------------------------------------------------------------------------------------------------------|
G#------------------------------------------------------------------------------------------------------|
E-------------------------------------------------------------------------------------------------------|
B--8-8--8-8-8--8-8-8--8-7-5-3-5--5-5--5-5-5--5-5-5--5-3-2------0--3--0--1--0--3--0--0--3--0--1--0--1--3-|
F#-8-8--8-8-8--8-8-8--8----------5-5--5-5-5--5-5-5--5-----3-0--0--3--0--1--0--3--0--0--3--0--1--0--1--3-|
B--8-8--8-8-8--8-8-8--8----------5-5--5-5-5--5-5-5--5----------0--3--0--1--0--3--0--0--3--0--1--0--1--3-| 

C#----------------------------------------------------------------------------------------------------|
G#----------------------------------------------------------------------------------------------------|
E-----------------------------------------------------------------------------------------------------|
B--8-8--8-8-8--8-8-8--8-8-8-7--5-5--5-5-5--5-5-5--5-5-5-5-5--0--3--0--1--0--3--0--0--3--0--1--0--1--3-|
F#-8-8--8-8-8--8-8-8--8-8-8-7--5-5--5-5-5--5-5-5--5-5-5-5-5--0--3--0--1--0--3--0--0--3--0--1--0--1--3-|
B--8-8--8-8-8--8-8-8--8-8-8-7--5-5--5-5-5--5-5-5--5-5-5-5-5--0--3--0--1--0--3--0--0--3--0--1--0--1--3-| 

C#------------------------------------------------------------------------------------------------------|
G#------------------------------------------------------------------------------------------------------|
E-------------------------------------------------------------------------------------------------------|
B--8-8--8-8-8--8-8-8--8-7-5-3-5--5-5--5-5-5--5-5-5--5-----3-3--0--3--0--1--0--3--0--0--3--0--1--0--1--3-|
F#-8-8--8-8-8--8-8-8--8----------5-5--5-5-5--5-5-5--5-3-5------0--3--0--1--0--3--0--0--3--0--1--0--1--3-|
B--8-8--8-8-8--8-8-8--8----------5-5--5-5-5--5-5-5--5----------0--3--0--1--0--3--0--0--3--0--1--0--1--3-| 

C#------------------------------------------|
G#------------------------------------------|
E-------------------------------------------|
B--0--3--0--1--0--3--0--0--3--0--6--5--3--5-|
F#-0--3--0--1--0--3--0--0--3--0--6--5--3--5-|
B--0--3--0--1--0--3--0--0--3--0--6--5--3--5-|


Guitar 2

Nothing for Intro, Verse 1, or Pre-chorus 1

Chorus 1 (each one starts with “(I’m) Running with Giants”)
C#---------------------------------------------------------------------------------------------------|      
G#-- 10-10-10-10-10-10-10-10-10-10-10-10-10-10-10-10-10-10-10-10-10-10-10-10-10-10-10-10-10-10-10-10-|      
E----------------------------------------------------------------------------------------------------|     
B---7--7--7--7--7--7--7--7--7--7--7--7--7--7--7--7--7--7--7--7--7--7--7--7--7--7--7--7--7--7--7--7---|
F#-(0)-----------------------------------------------------------------------------------------------|    
B----------------------------------------------------------------------------------------------------|
  
C#-----------------------------------------------------------------------------------------------------17~\-|
G#-13-13-13-13-13-13-13-13--15-15-15-15-15-15-15-15--17-17-17-17-17-17-17-17--18-18-18-18-18-18-18-18-------|
E-----------------------------------------------------------------------------------------------------------|
B--10-10-10-10-10-10-10-10--12-12-12-12-12-12-12-12--14-14-14-14-14-14-14-14--15-15-15-15-15-15-15-15-------|
F#----------------------------------------------------------------------------------------------------------|
B-----------------------------------------------------------------------------------------------------------|

C#---------------------------------------------------------------------------------------------------|      
G#-- 10-10-10-10-10-10-10-10-10-10-10-10-10-10-10-10-10-10-10-10-10-10-10-10-10-10-10-10-10-10-10-10-|      
E----------------------------------------------------------------------------------------------------|     
B---7--7--7--7--7--7--7--7--7--7--7--7--7--7--7--7--7--7--7--7--7--7--7--7--7--7--7--7--7--7--7--7---|
F#-(0)-----------------------------------------------------------------------------------------------|    
B----------------------------------------------------------------------------------------------------|
  
C#-----------------------------------------------------------------------------------------------------17~\-|
G#-13-13-13-13-13-13-13-13--15-15-15-15-15-15-15-15--17-17-17-17-17-17-17-17--18-18-18-18-18-18-18-18-------|
E-----------------------------------------------------------------------------------------------------------|
B--10-10-10-10-10-10-10-10--12-12-12-12-12-12-12-12--14-14-14-14-14-14-14-14--15-15-15-15-15-15-15-15-------|
F#----------------------------------------------------------------------------------------------------------|
B-----------------------------------------------------------------------------------------------------------|

Verse 2: Let notes ring
C#-17--13--13--13--12--10--17--13--17--20-| -(17)--(13)--13--13--12--10--17--13--17--20-|
G#---------17------------------------18---| -------------17--------------------------18-|
E-----------------------------------------| --------------------------------------------|
B-----------------------------------------| --------------------------------------------|
F#----------------------------------------| --------------------------------------------|
B-----------------------------------------| --------------------------------------------|

Pre-Chorus 2
C#--------------------------------------------------------------------------|
G#--------------------------------------------------------------------------|
E---------------------------------------------------------------------------|
B------------------------------7-3-2-0--------------------------------------|
F#--5--7--8--5--7--8--5--7--8-----------4~--------5--7--8--5--7--8--5--7--8-|
B------------------------------------------6-5-3----------------------------|

Chorus 2 (each one starts with “(I’m) Running with Giants”)
C#---------------------------------------------------------------------------------------------------|      
G#-- 10-10-10-10-10-10-10-10-10-10-10-10-10-10-10-10-10-10-10-10-10-10-10-10-10-10-10-10-10-10-10-10-|      
E----------------------------------------------------------------------------------------------------|     
B---7--7--7--7--7--7--7--7--7--7--7--7--7--7--7--7--7--7--7--7--7--7--7--7--7--7--7--7--7--7--7--7---|
F#-(0)-----------------------------------------------------------------------------------------------|    
B----------------------------------------------------------------------------------------------------|
  
C#-----------------------------------------------------------------------------------------------------17~\-|
G#-13-13-13-13-13-13-13-13--15-15-15-15-15-15-15-15--17-17-17-17-17-17-17-17--18-18-18-18-18-18-18-18-------|
E-----------------------------------------------------------------------------------------------------------|
B--10-10-10-10-10-10-10-10--12-12-12-12-12-12-12-12--14-14-14-14-14-14-14-14--15-15-15-15-15-15-15-15-------|
F#----------------------------------------------------------------------------------------------------------|
B-----------------------------------------------------------------------------------------------------------|

C#---------------------------------------------------------------------------------------------------|      
G#-- 10-10-10-10-10-10-10-10-10-10-10-10-10-10-10-10-10-10-10-10-10-10-10-10-10-10-10-10-10-10-10-10-|      
E----------------------------------------------------------------------------------------------------|     
B---7--7--7--7--7--7--7--7--7--7--7--7--7--7--7--7--7--7--7--7--7--7--7--7--7--7--7--7--7--7--7--7---|
F#-(0)-----------------------------------------------------------------------------------------------|    
B----------------------------------------------------------------------------------------------------|
  
C#-----------------------------------------------------------------------------------------------------17~\-|
G#-13-13-13-13-13-13-13-13--15-15-15-15-15-15-15-15--17-17-17-17-17-17-17-17--18-18-18-18-18-18-18-18-------|
E-----------------------------------------------------------------------------------------------------------|
B--10-10-10-10-10-10-10-10--12-12-12-12-12-12-12-12--14-14-14-14-14-14-14-14--15-15-15-15-15-15-15-15-------|
F#----------------------------------------------------------------------------------------------------------|
B-----------------------------------------------------------------------------------------------------------|

Nothing for Bridge

Chorus 3 (each one starts with “(I’m) Running with Giants”)
C#---------------------------------------------------------------------------------------------------|      
G#-- 10-10-10-10-10-10-10-10-10-10-10-10-10-10-10-10-10-10-10-10-10-10-10-10-10-10-10-10-10-10-10-10-|      
E----------------------------------------------------------------------------------------------------|     
B---7--7--7--7--7--7--7--7--7--7--7--7--7--7--7--7--7--7--7--7--7--7--7--7--7--7--7--7--7--7--7--7---|
F#-(0)-----------------------------------------------------------------------------------------------|    
B----------------------------------------------------------------------------------------------------|
  
C#-----------------------------------------------------------------------------------------------------17~\-|
G#-13-13-13-13-13-13-13-13--15-15-15-15-15-15-15-15--17-17-17-17-17-17-17-17--18-18-18-18-18-18-18-18-------|
E-----------------------------------------------------------------------------------------------------------|
B--10-10-10-10-10-10-10-10--12-12-12-12-12-12-12-12--14-14-14-14-14-14-14-14--15-15-15-15-15-15-15-15-------|
F#----------------------------------------------------------------------------------------------------------|
B-----------------------------------------------------------------------------------------------------------|

C#---------------------------------------------------------------------------------------------------|      
G#-- 10-10-10-10-10-10-10-10-10-10-10-10-10-10-10-10-10-10-10-10-10-10-10-10-10-10-10-10-10-10-10-10-|      
E----------------------------------------------------------------------------------------------------|     
B---7--7--7--7--7--7--7--7--7--7--7--7--7--7--7--7--7--7--7--7--7--7--7--7--7--7--7--7--7--7--7--7---|
F#-(0)-----------------------------------------------------------------------------------------------|    
B----------------------------------------------------------------------------------------------------|
  
C#-----------------------------------------------------------------------------------------------------17~\-|
G#-13-13-13-13-13-13-13-13--15-15-15-15-15-15-15-15--17-17-17-17-17-17-17-17--18-18-18-18-18-18-18-18-------|
E-----------------------------------------------------------------------------------------------------------|
B--10-10-10-10-10-10-10-10--12-12-12-12-12-12-12-12--14-14-14-14-14-14-14-14--15-15-15-15-15-15-15-15-------|
F#----------------------------------------------------------------------------------------------------------|
B-----------------------------------------------------------------------------------------------------------|

            
            
Suggest correction
Creating personal tab
Creating personal tab
You can edit any tab online and save it as your Personal.

You can edit, replace or remove any tab part or add personal notes – all changes will be seen only by you.

Personal tabs can be accessed anytime from any device, even offline.
Learn more »
comments
print report bad tab
1 comment total.
0 reply
Adrenaline16 62 Sep 26, 2016 01:22 PM

It's okay but the bridge is a Full power chord!

guest
You may want to rate the tab now too:
select rating
Wanna post a correction for this tab? Suggest correction