Oops, an error
Loading. Please wait.

Set It Off Bass Tab

2,226 views 1 this week
1 commentread comment
1 2 3 4 5
3 more votes to show rating
add to favorites
launch autoscroll
font size
0
reset
guitar tuner
Autoscroll
slow
fast
+/-
esc
set tempo
stop
Help us to improve Ultimate-Guitar.com Take our survey!
×
Tabbed by:Kevin R.

Some of the fills arent 100% but you can play along with the song just fine but i think 
main part is perfect


Tuning down a whole step to:DGCF

riff 1 (0:02)
F|--------------------------------------------|
C|--------------------------------------------|6 times
G|------------5-------------5-0---------------|
D|--0---3-0-------0---3-0---------------------|

riff 2 (0:38)
F|--------------------------------------------|
C|--------------------------------------------|1 time
G|--3---3-3--0h3h5-0---3---3-3--0-5h7-5-------|
D|--------------------------------------------|

reapet riff 1 (0:44)

reapet riff 2 (0:50)

reapet riff 1 4times (0:55)

riff 3 (1:10)
F|--------------------------------------------|
C|--------------------------------------------|1 time
G|------------5-------------------------------|
D|--0---3-0-------0---777--555----0-----------|

guitar plays.........(1:25)

riff 4 (1:37)
F|--------------------------------------------|
C|--------------------------------------------|3 times
G|--------------------------------------------|
D|-0-0-0-3p0-0-0-5p0-0-0-7-5------------------|

riff 5 (1:45)
F|--------------------------------------------|
C|--------------------------------------------|1 time
G|--------------------------------------------|
D|-0-0-0-3p0-0-0-5-7-5\3-0--------------------|

riff 4 3times (1:48)

riff 5 1time (1:57)

riff 4 3times (2:00)

riff 5 1time (2:08)

riff 4 7times (2:11)

riff 6 (2:31)
F|--------------------------------------------|
C|--------------------------------------------|1 time
G|--------------------------------------------|
D|-0-0-0-3p0-0-0-5-5-5\7/3-0--(0)-------------|

riff 1 3times (2:34)

riff 2 1time (2:46)

riff 1 1time (2:53)

riff 2 1time (2:59)

riff 2 3times (3:04)

riff 3 1time (3:19)

riff 1 1time (3:22)

riff 3 1time (3:28)

guitar plays....(3:33)

riff 4 3times (3:46)

riff 5 1time (3:54)

riff 4 3times (3:57)

riff 5 1time (4:06)

riff 4 3times (4:09)

riff 6 1time (4:17)

riff 4 3times (4:20)

riff 5 1time (4:28)

riff 4 3times (4:31)

riff 6 1time (4:40)

riff 7 6times (4:43)
|----------------------------------------------------------|
|----------------------------------------------------------|
|----------------------------------------------------------|
|-0--0h3h5-0--0h3h5-5--0--0h3h5\3-3-3----------------------|

riff 7 4times (5:17)

riff 1 1time (5:39)

riff 3 1time (5:45)
Suggest correction
Give kudos to tab author, rate the tab!
1 2 3 4 5
comments
print report bad tab
1 comment total.
0 reply
joel94 154 Aug 24, 2009 08:37 PM

the tab is good but riff 1 is
F|--------------------------------------------|
C|--------------------------------------------|
G|------------5-------------5p0---------------|
D|--0---3p0-------0---3p0---------------------|

guest
You may want to rate the tab now too:
select rating
Wanna post a correction for this tab? Suggest correction