Oops, an error
Loading. Please wait.

Set Me On Fire Tab

2,325 views 9 this week
7 commentsread comments
1 2 3 4 5
x 3
add to favorites
launch autoscroll
font size
0
reset
how to read this tab
guitar tuner
Autoscroll
slow
fast
+/-
esc
set tempo
stop
Help us to improve Ultimate-Guitar.com Take our survey!
×
Author
Difficulty
Tuning
intermediate
D A D G B E
-------------------------------------------------------------------------------
                    Set Me On Fire - Thousand Foot Krutch
-------------------------------------------------------------------------------
Tabbed by: StevenBeaven90
E-mail: stevenkotelnikov@Gmail.com
Feel free to email me if you have any questions about this tab or any other of my tabs.

Tuning: Drop D

[Intro](0:00-0:13)
Strings (x2)
e|---------------------------------------------------------------------------|
B|---------------------------------------------------------------------------|
G|---------------------------------------------------------------------------|
d|---------------------------------------------------------------------------|
A|-8-8-------8-8-------8-8-------8-8-6--8-8-------8-8-------8-8-------9-9-8--|
D|-----11-11-----11-11-----11-11------------11-11-----11-11-----11-11--------|

[Verse I](0:13-0:27)
Strings (x2)
e|---------------------------------------------------------------------------|
B|---------------------------------------------------------------------------|
G|---------------------------------------------------------------------------|
d|---------------------------------------------------------------------------|
A|-8-8-------8-8-------8-8-------8-8-6--8-8-------8-8-------8-8-------9-9-8--|
D|-----11-11-----11-11-----11-11------------11-11-----11-11-----11-11--------|

Rhythm Guitar (Plays at 0:26)(During Verse II, it plays at 1:48)
e|---------------------------------------------------------------------------|
B|---------------------------------------------------------------------------|
G|---------------------------------------------------------------------------|
d|--6-6-6--------------------------------------------------------------------|
A|--6-6-6--------------------------------------------------------------------|
D|--6-6-6--------------------------------------------------------------------|

[Pre-chorus I](0:27-0:54)
Strings (x4)
e|---------------------------------------------------------------------------|
B|---------------------------------------------------------------------------|
G|---------------------------------------------------------------------------|
d|---------------------------------------------------------------------------|
A|-8-8-------8-8-------8-8-------8-8-6--8-8-------8-8-------8-8-------9-9-8--|
D|-----11-11-----11-11-----11-11------------11-11-----11-11-----11-11--------|

Lead Guitar (Starts at 0:40)
e|---------------------------------------------------------------------------|
B|---------------------------------------------------------------------------|
G|-10--------10-11---------10--------10-8------------------------------------|
d|-----11----------------------11--------------------------------------------|
A|---------------------------------------------------------------------------|
D|---------------------------------------------------------------------------|

e|---------------------------------------------------------------------------|
B|---------------------------------------------------------------------------|
G|-10--------10-11---------10--------10-8---6---6-8-6-8-6--------------------|
d|-----11----------------------11--------------------------------------------|
A|---------------------------------------------------------------------------|
D|---------------------------------------------------------------------------|

Rhythm Guitar (Plays at 0:46)
e|---------------------------------------------------------------------------|
B|---------------------------------------------------------------------------|
G|---------------------------------------------------------------------------|
d|--6-6-6--------------------------------------------------------------------|
A|--6-6-6--------------------------------------------------------------------|
D|--6-6-6--------------------------------------------------------------------|

[Chorus I](0:54-1:22)
Lead Guitar
e|---------------------------------------------------------------------------|
B|---------------------------------------------------------------------------|
G|-6--------6--------3--------3----------------------------------------------|
d|---------------------------------------------------------------------------|
A|-4--------6--------1--------1----------------------------------------------|
D|---------------------------------------------------------------------------|

e|---------------------------------------------------------------------------|
B|---------------------------------------------------------------------------|
G|-6--------6--------3--------3----------------------------------------------|
d|---------------------------------------------------------------------------|
A|-4--------6--------1--------1----------------------------------------------|
D|---------------------------------------------------------------------------|

e|---------------------------------------------------------------------------|
B|-6-6-6-6-6-6-6-6-7-7-7-7-7-7-7-7-------------------------------------------|
G|---------------------------------6-6-6-6-6-6-6-6-6-6-6-6-6-6-6-6-----------|
d|---------------------------------------------------------------------------|
A|---------------------------------------------------------------------------|
D|---------------------------------------------------------------------------|

e|---------------------------------------------------------------------------|
B|-6-6-6-6-6-6-6-6-7-7-7-7-7-7-7-7-------------------------------------------|
G|---------------------------------6-6-6-6-6-6-6-6-6-6-6-6-6-6-6-6-----------|
d|---------------------------------------------------------------------------|
A|---------------------------------------------------------------------------|
D|---------------------------------------------------------------------------|

Strings (x2)(Starts at 1:08)(During Chorus II, Strings start at 2:31)
e|---------------------------------------------------------------------------|
B|---------------------------------------------------------------------------|
G|---------------------------------------------------------------------------|
d|---------------------------------------------------------------------------|
A|-8-8-------8-8-------8-8-------8-8-6--8-8-------8-8-------8-8-------9-9-8--|
D|-----11-11-----11-11-----11-11------------11-11-----11-11-----11-11--------|

[Post-chorus I](1:22-1:36)
Strings (x2)
e|---------------------------------------------------------------------------|
B|---------------------------------------------------------------------------|
G|---------------------------------------------------------------------------|
d|---------------------------------------------------------------------------|
A|-8-8-------8-8-------8-8-------8-8-6--8-8-------8-8-------8-8-------9-9-8--|
D|-----11-11-----11-11-----11-11------------11-11-----11-11-----11-11--------|

[Verse II](1:36-1:49)(Same as Verse I for Strings and Rhythm Guitar)
Piano 
e|---------------------------------------------------------------------------|
B|---------------------------------------------------------------------------|
G|-10--------10-11---------10--------10-8------------------------------------|
d|-----11----------------------11--------------------------------------------|
A|---------------------------------------------------------------------------|
D|---------------------------------------------------------------------------|

e|---------------------------------------------------------------------------|
B|---------------------------------------------------------------------------|
G|-10--------10-11---------10------------------------------------------------|
d|-----11----------------------11--------------------------------------------|
A|---------------------------------------------------------------------------|
D|---------------------------------------------------------------------------|

[Pre-chorus II](1:49-2:16)
Strings (x4)
e|---------------------------------------------------------------------------|
B|---------------------------------------------------------------------------|
G|---------------------------------------------------------------------------|
d|---------------------------------------------------------------------------|
A|-8-8-------8-8-------8-8-------8-8-6--8-8-------8-8-------8-8-------9-9-8--|
D|-----11-11-----11-11-----11-11------------11-11-----11-11-----11-11--------|

Piano (x4)
e|---------------------------------------------------------------------------|
B|---------------------------------------------------------------------------|
G|-10--------10-11---------10--------10-8------------------------------------|
d|-----11----------------------11--------------------------------------------|
A|---------------------------------------------------------------------------|
D|---------------------------------------------------------------------------|

Lead Guitar
e|---------------------------------------------------------------------------|
B|---------------------------------------------------------------------------|
G|-10--------10-11---------10--------10-8------------------------------------|
d|-----11----------------------11--------------------------------------------|
A|---------------------------------------------------------------------------|
D|---------------------------------------------------------------------------|

e|---------------------------------------------------------------------------|
B|---------------------------------------------------------------------------|
G|-10--------10-11---------10--------10-8---6---6-8-6-8-6--------------------|
d|-----11----------------------11--------------------------------------------|
A|---------------------------------------------------------------------------|
D|---------------------------------------------------------------------------|

e|---------------------------------------------------------------------------|
B|---------------------------------------------------------------------------|
G|-10--------10-11---------10--------10-8------------------------------------|
d|-----11----------------------11--------------------------------------------|
A|---------------------------------------------------------------------------|
D|---------------------------------------------------------------------------|

e|---------------------------------------------------------------------------|
B|---------------------------------------------------------------------------|
G|-10--------10-11---------10--------10-8---6---6-8-6-8-6--------------------|
d|-----11----------------------11--------------------------------------------|
A|---------------------------------------------------------------------------|
D|---------------------------------------------------------------------------|

Rhythm Guitar (Plays at 2:02 and 2:09)
e|---------------------------------------------------------------------------|
B|---------------------------------------------------------------------------|
G|---------------------------------------------------------------------------|
d|--6-6-6--------------------------------------------------------------------|
A|--6-6-6--------------------------------------------------------------------|
D|--6-6-6--------------------------------------------------------------------|

[Chorus II](2:16-2:44)(Same for Lead Guitar and Strings as they are in Chorus I)
Rhythm Guitar (Starts at 2:31)
e|---------------------------------------------------------------------------|
B|---------------------------------------------------------------------------|
G|-6------/-8------\-3-------/-6------/-8------\-3---------------------------|
d|-6-(x8)-/-8-(x8)-\-3-(x16)-/-6-(x8)-/-8-(x8)-\-3-(x16)---------------------|
A|-4------/-6------\-1-------/-4------/-6------\-1---------------------------|
D|---------------------------------------------------------------------------|

[Bridge](2:44-3:25)
Rhythm Guitar (Starts at 2:58)
e|---------------------------------------------------------------------------|
B|---------------------------------------------------------------------------|
G|---------------------------------------------------------------------------|
d|-x-------------------------------------------------------------------------|
A|-x-(x128)------------------------------------------------------------------|
D|-x-------------------------------------------------------------------------|

Lead Guitar (x2)(Starts at 3:11)
e|---------------------------------------------------------------------------|
B|---------------------------------------------------------------------------|
G|------10-------------6------6------10-------------8-------6----------------|
d|---11------11------6-----6------11------11------6-------6------------------|
A|-9-------------9-4------------9-------------9-4-------4--------------------|
D|---------------------------------------------------------------------------|

[Outroduction](3:25-3:48)
Lead Guitar
e|---------------------------------------------------------------------------|
B|---------------------------------------------------------------------------|
G|------10-------------6------6------10-------------8-------6----------------|
d|---11------11------6-----6------11------11------6-------6------------------|
A|-9-------------9-4------------9-------------9-4-------4--------------------|
D|---------------------------------------------------------------------------|

e|---------------------------------------------------------------------------|
B|---------------------------------------------------------------------------|
G|------10-------------6------6------10-------------8-------6----------------|
d|---11------11------6-----6------11------11------6-------6------------------|
A|-9-------------9-4------------9-------------9-4-------4--------------------|
D|---------------------------------------------------------------------------|

e|---------------------------------------------------------------------------|
B|---------------------------------------------------------------------------|
G|-6-------------------------------------------------------------------------|
d|-6-(Let ring)--------------------------------------------------------------|
A|-4-------------------------------------------------------------------------|
D|---------------------------------------------------------------------------|

************************************

| /   slide up
| \   slide down
| x   Mute note

************************************





By request of leagueofxinzhao, the tab below is set in Standard E Tuning

-------------------------------------------------------------------------------
                    Set Me On Fire - Thousand Foot Krutch
-------------------------------------------------------------------------------
Tabbed by: StevenBeaven90
E-mail: stevenkotelnikov@Gmail.com
Feel free to email me if you have any questions about this tab or any other of my tabs.

Tuning: Standard E

[Intro](0:00-0:13)
Strings (x2)
e|---------------------------------------------------------------------------|
B|---------------------------------------------------------------------------|
G|---------------------------------------------------------------------------|
d|---------------------------------------------------------------------------|
A|-8-8-----8-8-----8-8-----8-8-6--8-8-----8-8-----8-8-----9-9-8--------------|
E|-----9-9-----9-9-----9-9------------9-9-----9-9-----9-9--------------------|

[Verse I](0:13-0:27)
Strings (x2)
e|---------------------------------------------------------------------------|
B|---------------------------------------------------------------------------|
G|---------------------------------------------------------------------------|
d|---------------------------------------------------------------------------|
A|-8-8-----8-8-----8-8-----8-8-6--8-8-----8-8-----8-8-----9-9-8--------------|
E|-----9-9-----9-9-----9-9------------9-9-----9-9-----9-9--------------------|

Rhythm Guitar (Plays at 0:26)(During Verse II, it plays at 1:48)
e|---------------------------------------------------------------------------|
B|---------------------------------------------------------------------------|
G|---------------------------------------------------------------------------|
d|--6-6-6--------------------------------------------------------------------|
A|--6-6-6--------------------------------------------------------------------|
E|--4-4-4--------------------------------------------------------------------|

[Pre-chorus I](0:27-0:54)
Strings (x4)
e|---------------------------------------------------------------------------|
B|---------------------------------------------------------------------------|
G|---------------------------------------------------------------------------|
d|---------------------------------------------------------------------------|
A|-8-8-----8-8-----8-8-----8-8-6--8-8-----8-8-----8-8-----9-9-8--------------|
E|-----9-9-----9-9-----9-9------------9-9-----9-9-----9-9--------------------|

Lead Guitar (Starts at 0:40)
e|---------------------------------------------------------------------------|
B|---------------------------------------------------------------------------|
G|-10--------10-11---------10--------10-8------------------------------------|
d|-----11----------------------11--------------------------------------------|
A|---------------------------------------------------------------------------|
E|---------------------------------------------------------------------------|

e|---------------------------------------------------------------------------|
B|---------------------------------------------------------------------------|
G|-10--------10-11---------10--------10-8---6---6-8-6-8-6--------------------|
d|-----11----------------------11--------------------------------------------|
A|---------------------------------------------------------------------------|
E|---------------------------------------------------------------------------|

Rhythm Guitar (Plays at 0:46)
e|---------------------------------------------------------------------------|
B|---------------------------------------------------------------------------|
G|---------------------------------------------------------------------------|
d|--6-6-6--------------------------------------------------------------------|
A|--6-6-6--------------------------------------------------------------------|
E|--4-4-4--------------------------------------------------------------------|

[Chorus I](0:54-1:22)
Lead Guitar
e|---------------------------------------------------------------------------|
B|---------------------------------------------------------------------------|
G|-6--------6--------3--------3----------------------------------------------|
d|---------------------------------------------------------------------------|
A|-4--------6--------1--------1----------------------------------------------|
E|---------------------------------------------------------------------------|

e|---------------------------------------------------------------------------|
B|---------------------------------------------------------------------------|
G|-6--------6--------3--------3----------------------------------------------|
d|---------------------------------------------------------------------------|
A|-4--------6--------1--------1----------------------------------------------|
E|---------------------------------------------------------------------------|

e|---------------------------------------------------------------------------|
B|-6-6-6-6-6-6-6-6-7-7-7-7-7-7-7-7-------------------------------------------|
G|---------------------------------6-6-6-6-6-6-6-6-6-6-6-6-6-6-6-6-----------|
d|---------------------------------------------------------------------------|
A|---------------------------------------------------------------------------|
E|---------------------------------------------------------------------------|

e|---------------------------------------------------------------------------|
B|-6-6-6-6-6-6-6-6-7-7-7-7-7-7-7-7-------------------------------------------|
G|---------------------------------6-6-6-6-6-6-6-6-6-6-6-6-6-6-6-6-----------|
d|---------------------------------------------------------------------------|
A|---------------------------------------------------------------------------|
E|---------------------------------------------------------------------------|

Strings (x2)(Starts at 1:08)(During Chorus II, Strings start at 2:31)
e|---------------------------------------------------------------------------|
B|---------------------------------------------------------------------------|
G|---------------------------------------------------------------------------|
d|---------------------------------------------------------------------------|
A|-8-8-----8-8-----8-8-----8-8-6--8-8-----8-8-----8-8-----9-9-8--------------|
E|-----9-9-----9-9-----9-9------------9-9-----9-9-----9-9--------------------|

[Post-chorus I](1:22-1:36)
Strings (x2)
e|---------------------------------------------------------------------------|
B|---------------------------------------------------------------------------|
G|---------------------------------------------------------------------------|
d|---------------------------------------------------------------------------|
A|-8-8-----8-8-----8-8-----8-8-6--8-8-----8-8-----8-8-----9-9-8--------------|
E|-----9-9-----9-9-----9-9------------9-9-----9-9-----9-9--------------------|

[Verse II](1:36-1:49)(Same as Verse I for Strings and Rhythm Guitar)
Piano 
e|---------------------------------------------------------------------------|
B|---------------------------------------------------------------------------|
G|-10--------10-11---------10--------10-8------------------------------------|
d|-----11----------------------11--------------------------------------------|
A|---------------------------------------------------------------------------|
E|---------------------------------------------------------------------------|

e|---------------------------------------------------------------------------|
B|---------------------------------------------------------------------------|
G|-10--------10-11---------10------------------------------------------------|
d|-----11----------------------11--------------------------------------------|
A|---------------------------------------------------------------------------|
E|---------------------------------------------------------------------------|

[Pre-chorus II](1:49-2:16)
Strings (x4)
e|---------------------------------------------------------------------------|
B|---------------------------------------------------------------------------|
G|---------------------------------------------------------------------------|
d|---------------------------------------------------------------------------|
A|-8-8-----8-8-----8-8-----8-8-6--8-8-----8-8-----8-8-----9-9-8--------------|
E|-----9-9-----9-9-----9-9------------9-9-----9-9-----9-9--------------------|

Piano (x4)
e|---------------------------------------------------------------------------|
B|---------------------------------------------------------------------------|
G|-10--------10-11---------10--------10-8------------------------------------|
d|-----11----------------------11--------------------------------------------|
A|---------------------------------------------------------------------------|
E|---------------------------------------------------------------------------|

Lead Guitar
e|---------------------------------------------------------------------------|
B|---------------------------------------------------------------------------|
G|-10--------10-11---------10--------10-8------------------------------------|
d|-----11----------------------11--------------------------------------------|
A|---------------------------------------------------------------------------|
E|---------------------------------------------------------------------------|

e|---------------------------------------------------------------------------|
B|---------------------------------------------------------------------------|
G|-10--------10-11---------10--------10-8---6---6-8-6-8-6--------------------|
d|-----11----------------------11--------------------------------------------|
A|---------------------------------------------------------------------------|
E|---------------------------------------------------------------------------|

e|---------------------------------------------------------------------------|
B|---------------------------------------------------------------------------|
G|-10--------10-11---------10--------10-8------------------------------------|
d|-----11----------------------11--------------------------------------------|
A|---------------------------------------------------------------------------|
E|---------------------------------------------------------------------------|

e|---------------------------------------------------------------------------|
B|---------------------------------------------------------------------------|
G|-10--------10-11---------10--------10-8---6---6-8-6-8-6--------------------|
d|-----11----------------------11--------------------------------------------|
A|---------------------------------------------------------------------------|
E|---------------------------------------------------------------------------|

Rhythm Guitar (Plays at 2:02 and 2:09)
e|---------------------------------------------------------------------------|
B|---------------------------------------------------------------------------|
G|---------------------------------------------------------------------------|
d|--6-6-6--------------------------------------------------------------------|
A|--6-6-6--------------------------------------------------------------------|
E|--4-4-4--------------------------------------------------------------------|

[Chorus II](2:16-2:44)(Same for Lead Guitar and Strings as they are in Chorus I)
Rhythm Guitar (Starts at 2:31)
e|---------------------------------------------------------------------------|
B|---------------------------------------------------------------------------|
G|-6------/-8------\-3-------/-6------/-8------\-3---------------------------|
d|-6-(x8)-/-8-(x8)-\-3-(x16)-/-6-(x8)-/-8-(x8)-\-3-(x16)---------------------|
A|-4------/-6------\-1-------/-4------/-6------\-1---------------------------|
E|---------------------------------------------------------------------------|

[Bridge](2:44-3:25)
Rhythm Guitar (Starts at 2:58)
e|---------------------------------------------------------------------------|
B|---------------------------------------------------------------------------|
G|---------------------------------------------------------------------------|
d|-x-------------------------------------------------------------------------|
A|-x-(x128)------------------------------------------------------------------|
E|-x-------------------------------------------------------------------------|

Lead Guitar (x2)(Starts at 3:11)
e|---------------------------------------------------------------------------|
B|---------------------------------------------------------------------------|
G|------10-------------6------6------10-------------8-------6----------------|
d|---11------11------6-----6------11------11------6-------6------------------|
A|-9-------------9-4------------9-------------9-4-------4--------------------|
E|---------------------------------------------------------------------------|

[Outroduction](3:25-3:48)
Lead Guitar
e|---------------------------------------------------------------------------|
B|---------------------------------------------------------------------------|
G|------10-------------6------6------10-------------8-------6----------------|
d|---11------11------6-----6------11------11------6-------6------------------|
A|-9-------------9-4------------9-------------9-4-------4--------------------|
E|---------------------------------------------------------------------------|

e|---------------------------------------------------------------------------|
B|---------------------------------------------------------------------------|
G|------10-------------6------6------10-------------8-------6----------------|
d|---11------11------6-----6------11------11------6-------6------------------|
A|-9-------------9-4------------9-------------9-4-------4--------------------|
E|---------------------------------------------------------------------------|

e|---------------------------------------------------------------------------|
B|---------------------------------------------------------------------------|
G|-6-------------------------------------------------------------------------|
d|-6-(Let ring)--------------------------------------------------------------|
A|-4-------------------------------------------------------------------------|
E|---------------------------------------------------------------------------|

************************************

| /   slide up
| \   slide down
| x   Mute note

************************************
Suggest correction
Give kudos to tab author, rate the tab!
1 2 3 4 5
comments
print report bad tab
7 comments total. Showing first comments.
0 reply
wesmartin17 10 Sep 27, 2014 02:59 PM

instead of 4 on the second string, use 9 on the first string

0 reply
StevenBeaven90 1,978 Sep 27, 2014 04:50 PM

If the guitar was in standard E Tuning for the Strings, then yes, that is correct; it is much easier that way.

0 reply
StevenBeaven90 1,978 Sep 28, 2014 02:52 PM

Alright, I changed the tab according to Drop D Tuning. It could've been in standard E tuning, but I wanted to keep every part of the song in the same tuning.

guest
You may want to rate the tab now too:
select rating
Wanna post a correction for this tab? Suggest correction