Oops, an error
Loading. Please wait.

Slow Bleed tab

version 1
version 1

Whole song

1,404 views 1 this week
4 commentsread comments
1 2 3 4 5
x 3
add to favorites
×
Save as Personal and add changes to this tab that will be seen only by you. Learn more ›
×
You can save this tab as Personal to edit and correct it or add notes. All changes will be seen only by you. Learn more »
launch autoscroll
font size
0
reset
how to read this tab
guitar tuner
edit
Autoscroll
slow
fast
+/-
esc
set tempo
stop
here it is

Tuning: Drop D (DADGBe)

b=bend
rb=return bend
s=slide
sd=slide down



Verse Rhythm:
e | ---------------------------------------------|
B | ---------------------------------------------|
G | ---------------------------------------------|
D | -12-7-8-3-5-10-10-7-7-7-7--7-7-7-7--7-7------| x2
A | -12-7-8-3-5-10-10-7-7-7-7--7-7-7-7--7-7------|
D | -12-7-8-3-5-10-10-7-7-7-7--7-7-7-7--7-7------|


At the end of that the lead plays this:
e | -----------|
B | -13-13bb---|
G | -15-15bb---|


Then Rhythm
e | ------------------------------------|
B | ------------------------------------|
G | ------------------------------------|
D | -2-9-5-7-8-7-7-7-7--7-7-7-7--7-7----|
A | -2-9-5-7-8-7-7-7-7--7-7-7-7--7-7----|
D | -2-9-5-7-8-7-7-7-7--7-7-7-7--7-7----|


During that Lead plays:
e | -------------------------|
B | -9-9-9-9-9-9-9-9-14-14bb-|
G | -9-9-9-9-9-9-9-9-16-16bb-|
D | -------------------------|


Then Rhythm 
e | ---------------------------------------------|
B | ---------------------------------------------|
G | ---------------------------------------------|
D | -12-7-8-3-5-10-10-7-7-7-7--7-7-7-7--7-7------| 
A | -12-7-8-3-5-10-10-7-7-7-7--7-7-7-7--7-7------|
D | -12-7-8-3-5-10-10-7-7-7-7--7-7-7-7--7-7------|


Lead plays:
E | -------------|
B | -14-14bb-----|
G | -16-16bb-----|
D | -------------|


Pre-chorus:
G | -10-----3-|
D | -10-----3-|
A | -8------1-|
D | -8------1-|



Chorus Rhythm:
e | ----------------------------------------------------|
B | ----------------------------------------------------|
G | ----------------------------------------------------|
D | -0-0-0-7-7-8-8-8-10-10-10s12-12-12-7-7-8-8-8-10-7---| x2
A | -0-0-0-7-7-8-8-8-10-10-10s12-12-12-7-7-8-8-8-10-7---|
D | -0-0-0-7-7-8-8-8-10-10-10s12-12-12-7-7-8-8-8-10-7---|


Chorus Lead:
e | -17--17---17-18-17-17---17-15----17--17--17-18-17--|
B | ---15--15-------------15------17---15--15----------|
G | ---------------------------------------------------| 
D | ---------------------------------------------------|


Lead continued:
e | -17--17---17-15---|
B | ---15--15------17-|
G | ------------------|
D | ------------------|


I think rhythm does this bend a few time during the second time of the chorus.
e | --------|
B | -7brb---|
G | -9brb---|
D | --------|


Verse 2:(same as Verse 1)


Pre-Chorus

Chorus


Bridge Rhythm:
e | -----------------------|
B | -----------------------|
G | -3-3-3-3-3-------------|
D | -3-3-3-3-3-0-0-0-0-0---|
A | -1-1-1-1-1-0-0-0-0-0---|
D | -----------0-0-0-0-0---|

Also, every so often rhythm does these bends
e | -------------|                        
B | --7---7brb---|                     
G | --9---9brb---| 

also it does this once  
G | -2-3-4-|
D | -------|                         


Lead Bridge:
e | -----------------5-3-1----------------3---1---|
B | ---3---3-----3----3----3---3----3-------------|
G | --3-3-3-----2---------3-3-3-------------------|
D | -3---3--0-3---------3----3--0-----------------|
A | ----------------------------------------------|

Then Lead:
e | -------------------5-3-1------------------5-3-1---------------3---1-|
B | ---3---3-------3----3------3---3-------3---3-----3----3----3--------|
G | --3-3-3-------2-----------3-3-3-------2---------3-3--3--------------|
D | -3---3-----0-3-----------3---3--3--0-3---------3----3--0------------|
A | --------------------------------------------------------------------|


Lead:
e | ------------------3---1--|
B | ---3---3----3------------|
G | --3-3-3------------------|
D | -3---3--0----------------|
A | -------------------------|



Then Rhythm:
e | ----------------|
B | ----------------|
G | ----------------|
D | -2-7sd-2-12-12--|
A | -2-7sd-2-12-12--|
D | -2-7sd-2-12-12--|


Chorus


Then:
G | -5s7s9--|
D | -5s7s9--|
A | -3s5s7--|


Ending:
e | ------------------|
B | ------------------|
G | ------------------|
D | -12-7-8-3-5-10-10-|
A | -12-7-8-3-5-10-10-|
D | -12-7-8-3-5-10-10-|


not sure its 100% but its the best i got
GOD BLESS YOU

Fabian

Suggest correction
Creating personal tab
Creating personal tab
You can edit any tab online and save it as your Personal.

You can edit, replace or remove any tab part or add personal notes – all changes will be seen only by you.

Personal tabs can be accessed anytime from any device, even offline.
Learn more »
Give kudos to tab author, rate the tab!
1 2 3 4 5
comments
print report bad tab
4 comments total. Showing first comments.
0 reply
KoTa04 10 Mar 28, 2013 03:01 PM

Really good tab, I really doubt the rhythm guitar does those bends though... Some of the bends I think in the bridge are 5's and 7's instead of all 7's and 9's... I wasn't able to get a good tone to play the bends and the rhythm so I omitted the bends. I haven't played/learned the rhythm so I don't know.. Thanks for the tab! 5stars

0 reply
KoTa04 10 Mar 28, 2013 03:02 PM

I find there's some different pieces throughout the chorus, here's some of the combinations I use:
[Chorus] [I] [II] [III]
e|----------------------------------------------------------|--------|------|----------|
B|----------------------------------------------------------|--------|------|----------|
G|----------------------------------------------------------|--------|------|----------|
D|-0-0-0-7--7-/8--8-8-8-10-10-/12--12-12-12--7-7-/8--8-8-8--|-10-8-7-|-10-7-|-10-12-14-|
A|-0-0-0-7--7-/8--8-8-8-10-10-/12--12-12-12--7-7-/8--8-8-8--|-10-8-7-|-10-7-|-10-12-14-|
D|-0-0-0-7--7-/8--8-8-8-10-10-/12--12-12-12--7-7-/8--8-8-8--|-10-8-7-|-10-7-|-10-12-14-|

[Chorus II]
e|---------------------------------------------------------------|
B|---------------------------------------------------------------|
G|---------------------------------------------------------------|
D|-0-0-0-7--7-/8--8-8-8-10-10-/12--12-12-12--7-7-/8--8-8-8--10-7-|
A|-0-0-0-7--7-/8--8-8-8-10-10-/12--12-12-12--7-7-/8--8-8-8--10-7-|
D|-0-0-0-7--7-/8--8-8-8-10-10-/12--12-12-12--7-7-/8--8-8-8--10-7-|

0 reply
KoTa04 10 Mar 28, 2013 03:05 PM

I play this on the second time in the bridge:
e|-------------------------------|
B|-------------------------------|
G|-3-3-3-3-3-3-3-----------------|
D|-3-3-3-3-3-3-3-0--0-0-3--3-3-3-|
A|-1-1-1-1-1-1-1-0--0-0-3--3-3-3-|
D|---------------0--0-0-3--3-3-3-|

As I said earlier, I don't like playing the bends..
And the previous post, [I] {II] [III] are just the different ways I end certain pieces of the chorus..

guest
You may want to rate the tab now too:
select rating
Wanna post a correction for this tab? Suggest correction