Oops, an error
Loading. Please wait.

Smack Down Bass Tab

version 1
version 1

Whole song

Interactive

2,079 views 1 this week
2 commentsread comments
1 2 3 4 5
x 4
add to favorites
launch autoscroll
font size
0
reset
guitar tuner
Autoscroll
slow
fast
+/-
esc
set tempo
stop
Help us to improve Ultimate-Guitar.com Take our survey!
×
Author
Tuning
D A D G B E
-------------------------------------------------------------------------------
	Smack Down - Thousand Foot Krutch
-------------------------------------------------------------------------------

Tuning: Drop D 

Intro
G|--------------------------------|------------------------------------|
D|--------------------------------|------------------------------------| 
A|--------------------------------|------------------------------------|
D|-313---6666-8---1-11---8886-6-6-|-1313---6666-8---1-11---8866-10--6\-|

G|---------------------------------|------------------------------------|
D|---------------------------------|------------------------------------| 
A|---------------------------------|------------------------------------|
D|-1313---6666-8---1-11---8886-6-6-|-1313---6666-8---1-11---8866-10--6\-|

Verse
G|------------------------------------------|
D|------------------------------------------|
A|------------------------------------------|
D|-1h3-xxx--1h3-xx-6\---1h3-xxx--1h3-x-8-6\-|x2

Chorus
G|-------------------------------------------------------------------------|
D|-------------------------------------------------------------------------|
A|-------------------------------------------------------------------------|
D|-6-6-6-6-5-5-5-5-3-3-3-3-3-3-3h5--6-6-6-6-5-5-5-5-3--3-653-653-653-65653-|

G|-------------------------------------------------------------------|
D|-------------------------------------------------------------------|
A|-------------------------------------------------------------------|
D|-6-6-6-6-5-5-5-5-3-3-3-3-3-3-x-5--6-6-6-6-5-5-5-5-3--3-653-653-653-|

Post-Chorus 
G|---------------------------------|------------------------------------|
D|---------------------------------|------------------------------------| 
A|---------------------------------|------------------------------------|
D|-1313---6666-8---1-11---8886-6-6-|-1313---6666-8---1-11---8866-10--6\-|x2

Verse 
G|------------------------------------------|
D|------------------------------------------|
A|------------------------------------------|
D|-1h3-xxx--1h3-xx-6\---1h3-xxx--1h3-x-8-6\-|x2

Chorus 
G|-------------------------------------------------------------------------|
D|-------------------------------------------------------------------------|
A|-------------------------------------------------------------------------|
D|-6-6-6-6-5-5-5-5-3-3-3-3-3-3-3h5--6-6-6-6-5-5-5-5-3--3-653-653-653-65653-|

G|--------------------------------------------------|
D|--------------------------------------------------|
A|--------------------------------------------------|
D|-6-6-6-6-5-5-5-5-3-3-3-3-3-3-x-5--6-6-6-6-5-5-5-5-|

Verse 
G|------------------------------------------|
D|------------------------------------------|
A|------------------------------------------|
D|-1h3-xxx--1h3-xx-6\---1h3-xxx--1h3-x-8-6\-|

G|-----------------------------------|
D|-----------------------------------|
A|-----------------------------------|
D|-1h3-xxx--1h3-xx-6\---1h3-xxx--1-3-|

~Break with Guitar and Crackling Flames (Cause TFK is beast like that...)~

Outro 
G|--------------------------------------------|
D|--------------------------------------------| 
A|--------------------------------------------|
D|-8866-10-6--1313---6666-8---1-11---8886-6-6-|

G|---------------------------------|
D|---------------------------------| 
A|---------------------------------|
D|-313---6666-8---1-11---8866-10-6-|x2



| /  slide up
| \  slide down
| h  hammer-on
| p  pull-off
| ~  let note ring
| +  harmonic
| x  Mute note
===============================================================================

Suggest correction
comments
print report bad tab
2 comments total.
0 reply
leftyluke7 191 Mar 20, 2010 11:01 PM

Excellent tab! I don't play bass but this tab was very easy to convert to guitar.

0 reply
NewChanceBass 10 Jun 11, 2014 02:24 PM

Thanks alot helped me out when I found out my tabs were wrong but shouldn't it be a half lower?

guest
You may want to rate the tab now too:
select rating
Wanna post a correction for this tab? Suggest correction