Oops, an error
Loading. Please wait.

So Far Gone tab

version 3
version 3

Whole song

19,358 views 78 this week
4 commentsread comments
1 2 3 4 5
x 29
add to favorites
×
Save as Personal and add changes to this tab that will be seen only by you. Learn more ›
×
You can save this tab as Personal to edit and correct it or add notes. All changes will be seen only by you. Learn more »
launch autoscroll
font size
0
reset
how to read this tab
guitar tuner
edit
Autoscroll
slow
fast
+/-
esc
set tempo
stop
-------------------------------------------------------------------------------
                So Far Gone - Thousand Foot Krutch
-------------------------------------------------------------------------------
Tabbed by: qwertypoiu
Tuning: Standard (Capo 3rd Fret)

[INTRO/VERSE]
E|---------------------------------3-----------------------------------|
B|-0----------------3---3----------3-----3----------------------1-0----|
G|-0h2-0----0---0-0-2-0-2-0--------0-----0-----2-2-0---0---0------0--0-|
D|-------0--2---2-0-0---0------0h2-2-----2-2---0-0---4-2-2-2-0--2-2--2-|
A|----------2---2-0----------3---------3------------------------3------|
E|---------------------------------------------------------------------|

[Lead into chorus]
E|---------|
B|---------|
G|---------|
D|-0h2/4-5-|
A|---------|
E|---------|


[CHORUS] (Palm mute down strokes)

 G           Dsus            Em
I wanna be so far gone in you
                C9               G
So far nothing else will ever do
             Dsus            Em
I wanna be so far gone in you
 C9
In you


[Lead into intro/verse]
E|-------|
B|-0---0-|
G|-0-2-0-|
D|-0---0-|
A|-------|
E|-------|

[Lead into chorus]
E|---------|
B|---------|
G|---------|
D|-0h2/4-5-|
A|---------|
E|---------|


[CHORUS] (Palm mute down strokes)

 G           Dsus            Em
I wanna be so far gone in you
                C9               G
So far nothing else will ever do
             Dsus            Em
I wanna be so far gone in you
 C9
In you
2X

[BRIDGE] (Regular Strumming)

            Em
I wanna be lost in you
        C9
Like a ship in the night
             G
I wanna get lost in you
    Dsus
Underneath your sky
            Em
I wanna be lost in you
        C9
Like a ship in the night
        G      Dsus
So far gone tonight


[CHORUS]

G           Dsus            Em
I wanna be so far gone in you
                C9               G
So far nothing else will ever do
             Dsus            Em
I wanna be so far gone in you
 C9
In you...G  Dsus Em

 C9             G
So far gone in you
 Dsus
In you
 Em
In you
 C9             G
So far gone in you



************************************

| h  Hammer-on
| /  Slide up

************************************

            
            
Suggest correction
Creating personal tab
Creating personal tab
You can edit any tab online and save it as your Personal.

You can edit, replace or remove any tab part or add personal notes – all changes will be seen only by you.

Personal tabs can be accessed anytime from any device, even offline.
Learn more »
comments
print report bad tab
4 comments total. Showing first comments.
+2 reply
luntshunts 10 Feb 28, 2014 10:20 AM, edited at 03:24 pm

This tab is basically perfect!

0 reply
capeinsanity 10 Feb 13, 2015 05:04 PM

awesome tab, I need a lot of help on what fingers to use with what strings though. Any way you could add that somehow? or maybe share a link on how to learn and understand finger usage with this particular song? Video link maybe. Thanks so much in advance!

0 reply
Claine-senpai 113 Jul 19, 2015 10:12 AM

Maybe it should be like this:

E|---------------------------------3-----------------------------------|
B|-0----------------3---3-3--------3-----3----------------------1-0----|
G|-0h2-0----0---0-0-2-0-2-0--------0-----0-----2-2-0---0---0------0--0-|
D|-------0--2---2-0-0---0------0h2-2-----2-2---0-0---4-2-2-2-0--2-2--2-|
A|----------2---2-0----------3---------3------------------------3------|
E|---------------------------------------------------------------------|

for me it just sounds better ^^

guest
You may want to rate the tab now too:
select rating
Wanna post a correction for this tab? Suggest correction