Oops, an error
Loading. Please wait.

So Far Gone tab

version 6
version 6

Whole song

520 views 9 this week
1 commentread comment
1 2 3 4 5
3 more votes to show rating
add to favorites
×
Save as Personal and add changes to this tab that will be seen only by you. Learn more ›
×
You can save this tab as Personal to edit and correct it or add notes. All changes will be seen only by you. Learn more »
launch autoscroll
font size
0
reset
how to read this tab
guitar tuner
edit
Autoscroll
slow
fast
+/-
esc
set tempo
stop
About this tab version
Including how to play the singing on guitar. Was this info helpful? Yes No
[Intro/Verse]

e----------------------------------3----3----------------------------|
B--0---0----0--0-0--3-3-3-3--------3--0-3-0-------------------1-0-0--|
G--0h2-0-0--0--0-0--2-0-2-0--------0--2-0-2--2-2-0-0-0-0-0-0--0-0-2--|
D--------0--2--2-0--0-0-0-0----0h2-2--3-2-3--0-0-0-4-2-2-2-0--2-2-3--|
A-----------2--2-0--0-0-0-0--3-----3----3---------------------3-3----|
E-----------0--0-0---------------------------------------------------|


[solo]

e--7-7-10-10--8-7-3h5p3h5p3h5p3----3-3-5-5-3-3-7-7-3-03----3h5p3----|
B----------------------------------------------------------------3-5|
G-------------------------------------------------------------------|
D-------------------------------------------------------------------|
A-------------------------------------------------------------------|
E-------------------------------------------------------------------|


[Interlude]

e-----------|
B-----------|
G-----------|
D--0h2-4-5--|
A-----------|
E-----------|


[Chorus]

G          D              Em
I wanna be so far gone in you
               C              G
so far nothing else will ever do
           D              Em
I wanna be so far gone in you
   C
In you..


[Bridge]

           Em
I wanna be lost in you
       C
Like a ship in the night
            G
I wanna get lost in you
D
Underneath your sky
           Em
I wanna be lost in you
       C
Like a ship in the night
G             D
so far gone tonight



[Verse]

e--------------------------------------------------------------------------------------------------|
B--------------------------------------------------------------------------------------------------|
G--4-4-7-7--5-4-2-0-4----0-0-2-2-0-0-4-4-0-0--------4-4-7-7--5-4-2-0-4----0-2-0-0-2-2-0-0-4-4-0-0--|
D--------------------------------------------------------------------------------------------------|
A--------------------------------------------------------------------------------------------------|
E--------------------------------------------------------------------------------------------------|


e--------------------------------------------------------------------------------------------------------|
B--------------------------------------------------------------------------------------------------------|
G--4-4-0-2-0-0---0---4----0-0-2-2-0-0-4-4-0-0---0-0--------7-7-7-7\5-5-5-4-2-0-4----0-0-2-2-0-0-4-4-0-0--|
D--------------2---2--------------------------4----------------------------------------------------------|
A--------------------------------------------------------------------------------------------------------|
E--------------------------------------------------------------------------------------------------------|


[Chorus]

e--------------------------------------------------------------------------------|
B--------------------------------------------------------------------------------|
G--4-2-2-0-5--4--2--0---0----4-2-2-0-5--4--2--0---0----4-2-2-0-7--0--------------|
D---------------------4-------------------------4-------------------4--5-5\4\2---|
A--------------------------------------------------------------------------------|
E--------------------------------------------------------------------------------|


[Bridge]

e-------------------------------------------------------------------------------|
B-------------------------------------------------------------------------------|
G--0-0h2-0-0----0-0h2-0-7--0-0--0h7-7s9--7-5-4----0-0h2-0-7--0-2--5-4-4-2--5\4--|
D-------------------------------------------------------------------------------|
A-------------------------------------------------------------------------------|
E-------------------------------------------------------------------------------|

e------------------------------------------------|
B------------------------------------------------|
G--0-0h2-0-7--0-0--0h7-7s9--7-5-4----5-4-2--0-2--|
D------------------------------------------------|
A------------------------------------------------|
E------------------------------------------------| 



Suggest correction
Creating personal tab
Creating personal tab
You can edit any tab online and save it as your Personal.

You can edit, replace or remove any tab part or add personal notes – all changes will be seen only by you.

Personal tabs can be accessed anytime from any device, even offline.
Learn more »
Give kudos to tab author, rate the tab!
1 2 3 4 5
comments
print report bad tab
1 comment total.
0 reply
RyanT333 131 Apr 01, 2016 06:58 AM

The "solo" is played with the the capo on 6th fret. For some reason they removed that from the tab.

Check out my cover here: https://www.youtube.com/watch?v=HyGtJqrcGUs

guest
You may want to rate the tab now too:
select rating
Wanna post a correction for this tab? Suggest correction