Oops, an error
Loading. Please wait.

Stranger Bass Tab

417 views 1 this week
1 commentread comment
1 2 3 4 5
1 last vote to show rating
add to favorites
launch autoscroll
font size
0
reset
guitar tuner
Autoscroll
slow
fast
+/-
esc
set tempo
stop
Help us to improve Ultimate-Guitar.com Take our survey!
×
Author
Tuning
D A D G B E
-------------------------------------------------------------------------------
		     Stranger - Thousand Foot Krutch
-------------------------------------------------------------------------------
	
Tuning: Drop D

Intro
G|-----------|
D|-----------| x12
A|-----------|
D|--3--5--0--|

Pre-Chorus
G|------------------------------------------------------------|
D|------------------------------------------------------------| 
A|------------------------------------------------------------|
D|--7-7-----3-3-----5-5-----0---0--7-7-----3-3-----5-5-----0--|

Chorus
G|---------------------------------------|
D|---------------------------------------| x4
A|---------------------------------------|
E|--7-7-7---3---3-3-3---5-5-5-5---0--00--|

Verse
G|-----------|
D|-----------| x8
A|-----------|
D|--3--5--0--|

Pre-Chorus
G|------------------------------------------------------------|
D|------------------------------------------------------------| 
A|------------------------------------------------------------|
D|--7-7-----3-3-----5-5-----0---0--7-7-----3-3-----5-5-----0--|

Chorus
G|---------------------------------------|
D|---------------------------------------| x4
A|---------------------------------------|
E|--7-7-7---3---3-3-3---5-5-5-5---0--00--|

Bridge
G|-----------------------------|
D|-----7---7---7----5---5---5--| x4
A|-----------------------------|
E|--7-----7--7---5-----5--5----|

Chorus
G|---------------------------------------|
D|---------------------------------------| Repeat Until End
A|---------------------------------------|
E|--7-7-7---3---3-3-3---5-5-5-5---0--00--|



| /  slide up
| \  slide down
| h  hammer-on
| p  pull-off
| ~  vibrato
| +  harmonic
| x  Mute note
===============================================================================

Suggest correction
Give kudos to tab author, rate the tab!
1 2 3 4 5
comments
print report bad tab
1 comment total.
0 reply
Haloquadratum 110 Oct 05, 2013 10:12 AM

The intro and verse are not right. You can clearly hear that Joel plays two different things. This sounds better:

G|-----------| ---
D|-----------| x2 |
A|-----------| |
D|--3--5--0--| |
| x3
G|-----------| |
D|-----------| x2 |
A|-----------| |
D|--5--7--0--| ---

I'm not sure if it's perfect, but it's better.

guest
You may want to rate the tab now too:
select rating
Wanna post a correction for this tab? Suggest correction