Oops, an error
Loading. Please wait.

The Flame In All Of Us Bass Tab

version 1
version 1

Whole song

Interactive

  • This tab is complete with all instruments and original tuning.
3,046 views 1 this week
2 commentsread comments
1 2 3 4 5
excellent!
x 6
add to favorites
launch autoscroll
font size
0
reset
guitar tuner
Autoscroll
slow
fast
+/-
esc
set tempo
stop
Help us to improve Ultimate-Guitar.com Take our survey!
×
Author
Intro/Main riff

G|------------------------------------------------|
D|------------------------------------------------|
A|---------1-0---3----------------1-0---3---------| x 2
D|-0-3-5-0-----0---0-5-3--0-3-5-0-----0---0-5h7p3-|


 Verse

G|-----------------------------|
D|-----------------------------|
A|-----------------------------| x 2
D|-000---333---000---333--5h10-| 


 Pre Chorus

G|--------------------------------------|
D|--------------------------------------|
A|----------11111111----------000000----|
D|-00000000----------55555555--------3~-|

G|---------------------------------------|
D|---------------------------------------|
A|----------11111111----------0-0-0-0----|
D|-00000000----------55555555---------3~-|


 Chorus

 Don't play the first time

G|-------------------------------------|
D|-------------------------------------|
A|----------00000000----------33333333-|
D|-33333333----------00000000----------|


 Intro/Main riff

G|------------------------------------------------|
D|------------------------------------------------|
A|---------1-0---3----------------1-0---3---------| x 2
D|-0-3-5-0-----0---0-5-3--0-3-5-0-----0---0-5h7p3-|


 Verse 2

G|-----------------------------|
D|-------------------------3h5-|
A|-----------------------------|
D|-000---333---000---333--5----|

G|-----------------------------|
D|-----------------------------|
A|-----------------------------|
D|-000---333---000---333--5h10-| 


 Pre Chorus

G|--------------------------------------|
D|--------------------------------------|
A|----------11111111----------000000----|
D|-00000000----------55555555--------3~-|

G|---------------------------------------|
D|---------------------------------------|
A|----------11111111----------0-0-0-0----|
D|-00000000----------55555555---------3~-|



 Chorus

 Don't play the first 2 times

G|-------------------------|
D|-------------------------|
A|-------0~----------3~----|
D|-3~----------0~----------|

G|-------------------------------------|
D|-------------------------------------|
A|----------00000000----------33333333-|
D|-33333333----------00000000----------|

 Bridge

G|---------------------------------|
D|---------------------------------|
A|---------0-0-0-0---------3-3-3-3-|
D|-3-3-3-3---------0-0-0-0---------|

G|---------------------------------|
D|---------------------------------|
A|-----------------0-0-0-0-3-3-3-3-|
D|-3-3-3-3-0-0-0-0-----------------|

G|---------------------------------|
D|---------------------------------|
A|---------0-0-0-0---------3-3-3-3-| x 2
D|-3-3-3-3---------0-0-0-0---------|


 Intro/Main riff

G|------------------------------------------------|
D|------------------------------------------------|
A|---------1-0---3----------------1-0---3---------| x 4
D|-0-3-5-0-----0---0-5-3--0-3-5-0-----0---0-5h7p3-|

Awesome riff but the rest of the song is a bit of a let down. Enjoy!
Suggest correction
comments
print report bad tab
2 comments total.
+1 reply
SK8nBASS 1,851 wrote on January 18 2010, 09:57 am

great! but the rest of the song is cool too! haha

+1 reply
NightHawk123 10 wrote on August 19 2012, 09:37 pm

The whole song is awesome!
Great job on the tab

guest
You may want to rate the tab now too:
select rating
Please do not post tabs as comments. Select "correction" instead!