Oops, an error
Loading. Please wait.

The Safest Place Bass Tab

1,292 views 1 this week
no commentswrite comment
1 2 3 4 5
please rate
add to favorites
launch autoscroll
font size
0
reset
guitar tuner
Autoscroll
slow
fast
+/-
esc
set tempo
stop
Help us to improve Ultimate-Guitar.com Take our survey!
×
Contributor
Thousand Foot Krutch-The Safest Place Bass Tab
The bassist for TFK just has the BEAD strings 
on a jazz bass that is what I wrote the tab to. Five string tuning BEAD


Intro
[------------------------------------------------------------]
[------------------------------------------------------------]
[---------------0----3-3------0--------------0----3-3--------]
[--0-0-0-0-3—-0----0------0-3---0-0-0-0-3—-0----0------3--3--]

[-------------------------------------------------------------]
[-------------------------------------------------------------]
[---------------0----3-3------0--------------0----3-2------0--]
[--0-0-0-0-3—-0----0------0-3---0-0-0-0-3—-0----0------0-3----]

Verse 1 play three times
[---------------------------------------------------------]
[---------------------------------------------------------] 
[------------0------3------0-------------0----3-2------0--]
[--0--0-0-3-------0----0-3---0--0-0-3--0----0------0-3----]
   

Pre-Chorus
[--------------------------------------------------]
[----------0----------0-----------0----------0-----] 
[------0----------0-----------0----------0------3--]
[--0-3---0----0-3---0-----0-3---0----0-3---0-------] 


Chorus
[------------------------------------------------------]
[------------------------------------------------------]
[---------------------------3--3-3-3-------------------]
[--0--0-0-0-1--1-1-1-1--1-1-----------3--3-3-3-3--3-3--]

[------------------------------------------------------]
[------------------------------------------------------]
[---------------------------3--3-3-3-------------------]
[--0--0-0-0-1--1-1-1-1--1-1-----------3--3-3-3-3--3-3--]

[-------------------------------------------------]
[-------------------------------------------------]
[-----------2--2-2-2-2--2-2----------0----0----0--]
[--0--0-0-0-----------------3--3-3-3----x----x----]


[-----------------------------------------------------]
[-----------------------------------------------------]
[---------------------------3--3-3-3------------------]
[--0--0-0-0-1--1-1-1-1--1-1----------3--3-3-3-3--3-3--]


Bridge

[-----------------------------------------------------]
[------------0----------------------------------------]
[------2------------------------2---0-----------------]
[--0-------------0-3v--0-3v--0-----------0-0-0-3v-3---]


[-----------------------------------------------------]
[------------0----------------------------------------]
[------2-------------------------2---0----------------]
[--0-------------0-3v--0-3v--0------------0-3v--0-3v--]




[------------------------------------]
[----------------0-------------------]
[------0---3-2------3-2-0-2-----0----]x4
[--0-3---0-----0------------0-3---3--]

[--------------------------------]
[-----------------0--------------]4x
[-------0---3-2-----3-2-0-2------]
[--0--3---0-----0-----------0-3--]
comments
We did not receive enough feedback on this tab! Please rate:
print report bad tab
1 2 3 4 5
I want to post or [tab]
guest
You may want to rate the tab now too:
select rating
Please do not post tabs as comments. Select "correction" instead!