Oops, an error
Loading. Please wait.

The Safest Place tab

3,064 views 6 this week
no commentswrite comment
1 2 3 4 5
x 3
add to favorites
×
Save as Personal and add changes to this tab that will be seen only by you. Learn more ›
×
You can save this tab as Personal to edit and correct it or add notes. All changes will be seen only by you. Learn more »
launch autoscroll
font size
0
reset
how to read this tab
guitar tuner
edit
Autoscroll
slow
fast
+/-
esc
set tempo
stop
Thousand Foot Krutch-The Safest Place
Album-The Flame In All Of Us
Tabbed by: overflowme/schecter777
Email: strummer99@cox.net

All guitars tuned B-F#-B-E-G#-C#

Key:
.=palm mute
x=mute
~=let ring
s=slide
v=vibrato

Intro
[------------------------------------------------------------]
[------------------------------------------------------------]
[------------------------------------------------------------]
[--0-0-0-0-3—-0-5—-0-8-8--0-3-5-0-0-0-0-3—-0-5--0-8-8--3--3--]
[--0-0-0-0-3—-0-5—-0-8-8--0-3-5-0-0-0-0-3—-0-5--0-8-8--3--3--]
[--0-0-0-0-3—-0-5--0-8-8--0-3-5-0-0-0-0-3—-0-5--0-8-8--3--3--]

[-------------------------------------------------------------]
[-------------------------------------------------------------]
[-------------------------------------------------------------]
[--0-0-0-0-3—-0-5—-0-8-8--0-3-5-0-0-0-0-3—-0-5--0-8-7--0-3-5--]
[--0-0-0-0-3—-0-5—-0-8-8--0-3-5-0-0-0-0-3—-0-5--0-8-7--0-3-5--]
[--0-0-0-0-3—-0-5--0-8-8--0-3-5-0-0-0-0-3—-0-5--0-8-7--0-3-5--]

Verse 1
[---------------------------------------------------------]
[---------------------------------------------------------]
[---------------------------------------------------------]
[---------------------------------------------------------]
[---------------------------------------------------------]
[--0--0-0-3--0-5--0-8--0-3-5-0--0-0-3--0-5--0-8-7--0-3-5--]
   .  . . .  . .  . .  . . . .  . . .  . .  . . .  . . .
[--------------------------------------------------------]
[--------------------------------------------------------]
[--------------------------------------------------------]
[--------------------------------------------------------]
[--------------------------------------------------------]
[--0--0-0-3--0-5--0-8--0-3-5-0--0-0-3--0-5--0-8-8--3--3--]
   .  . . .  . .  . .  . . . .  . . .  . .  . . .  .  .
[---------------------------------------------------------]
[---------------------------------------------------------]
[---------------------------------------------------------]
[---------------------------------------------------------]
[---------------------------------------------------------]
[--0--0-0-3--0-5--0-8--0-3-5-0--0-0-3--0-5--0-8-7--0-3-5--]
   .  . . .  . .  . .  . . . .  . . .  . .  . . .  . . .
[---------------------------------------------------------]
[---------------------------------------------------------]
[---------------------------------------------------------]
[---------------------------------------------------------]
[---------------------------------------------------------]
[--0--0-0-3--0-5--0-8--0-3-5-0--0-0-3--0-5--0-8-7--0-3-5--]
   .  . . .  . .  . .  . . . .  . . .  . .  . . .  . . .
Pre-Chorus
[--------------------------------------------------]
[--------------------------------------------------]
[--------------------------------------------------]
[--------------------------------------------------]
[----------5----------5-----------5----------5--3--]
[--0-3-5-0----0-3-5-0-----0-3-5-0----0-3-5-0-------]

[----------------------------------------------------------]
[----------------------------------------------------------]
[----------------------------------------------------------]
[------------------------x-x-x-x---------------------------]
[----------5----------5--x-x-x-x---------5----------5--3~--]
[--0-3-5-0----0-3-5-0----x-x-x-x-0-3-5-0----0-3-5-0--------]

Chorus
[-----------------------------------------------------]
[-----------------------------------------------------]
[-----------------------------------------------------]
[--0--0-0-0-1--1-1-1-1--1-1-8--8-8-8-3--3-3-3-3--3-3--]
[--0--0-0-0-1--1-1-1-1--1-1-8--8-8-8-3--3-3-3-3--3-3--]
[--0--0-0-0-1--1-1-1-1--1-1-8--8-8-8-3--3-3-3-3--3-3--]

[-------------------------------------------------]
[-------------------------------------------------]
[-------------------------------------------------]
[--0--0-0-0-7--7-7-7-7--7-7-5--5-5-5-3--x-3--x-3--]
[--0--0-0-0-7--7-7-7-7--7-7-5--5-5-5-3--x-3--x-3--]
[--0--0-0-0-7--7-7-7-7--7-7-5--5-5-5-3--x-3--x-3--]

[-----------------------------------------------------]
[-----------------------------------------------------]
[-----------------------------------------------------]
[--0--0-0-0-1--1-1-1-1--1-1-8--8-8-8-3--3-3-3-3--3-3--]
[--0--0-0-0-1--1-1-1-1--1-1-8--8-8-8-3--3-3-3-3--3-3--]
[--0--0-0-0-1--1-1-1-1--1-1-8--8-8-8-3--3-3-3-3--3-3--]

[-------------------------------------------------]
[-------------------------------------------------]
[-------------------------------------------------]
[--0--0-0-0-7--7-7-7-7--7-7-3--3-3-3-5--x-5--x-5--]
[--0--0-0-0-7--7-7-7-7--7-7-3--3-3-3-5--x-5--x-5--]
[--0--0-0-0-7--7-7-7-7--7-7-3--3-3-3-5--x-5--x-5--]

Post-Chorus
[-------------------------------------------------------------]
[-------------------------------------------------------------]
[-------------------------------------------------------------]
[--0-0-0-0-3—-0-5—-0-8-8--0-3-5-0-0-0-0-3—-0-5--0-8-7--0-3-5--]
[--0-0-0-0-3—-0-5—-0-8-8--0-3-5-0-0-0-0-3—-0-5--0-8-7--0-3-5--]
[--0-0-0-0-3—-0-5--0-8-8--0-3-5-0-0-0-0-3—-0-5--0-8-7--0-3-5--]

(Verse 1)

(Pre-Chorus)

Chorus 2
Gtr. 1
[--10~~-----------------------]2x
[-------10~-8~-----8~---------]
[--------------10~----10~-7~--]
[-----------------------------]
[-----------------------------]
[-----------------------------]

Gtr. 2
[-----------------------------------------------------]
[-----------------------------------------------------]
[-----------------------------------------------------]
[--0--0-0-0-1--1-1-1-1--1-1-8--8-8-8-3--3-3-3-3--3-3--]
[--0--0-0-0-1--1-1-1-1--1-1-8--8-8-8-3--3-3-3-3--3-3--]
[--0--0-0-0-1--1-1-1-1--1-1-8--8-8-8-3--3-3-3-3--3-3--]

[-------------------------------------------------]
[-------------------------------------------------]
[-------------------------------------------------]
[--0--0-0-0-7--7-7-7-7--7-7-5--5-5-5-3--x-3--x-3--]
[--0--0-0-0-7--7-7-7-7--7-7-5--5-5-5-3--x-3--x-3--]
[--0--0-0-0-7--7-7-7-7--7-7-5--5-5-5-3--x-3--x-3--]

[-----------------------------------------------------]
[-----------------------------------------------------]
[-----------------------------------------------------]
[--0--0-0-0-1--1-1-1-1--1-1-8--8-8-8-3--3-3-3-3--3-3--]
[--0--0-0-0-1--1-1-1-1--1-1-8--8-8-8-3--3-3-3-3--3-3--]
[--0--0-0-0-1--1-1-1-1--1-1-8--8-8-8-3--3-3-3-3--3-3--]

[-------------------------------------------------]
[-------------------------------------------------]
[-------------------------------------------------]
[--0--0-0-0-7--7-7-7-7--7-7-3--3-3-3-5--x-5--x-5--]
[--0--0-0-0-7--7-7-7-7--7-7-3--3-3-3-5--x-5--x-5--]
[--0--0-0-0-7--7-7-7-7--7-7-3--3-3-3-5--x-5--x-5--]

Bridge
[-----------------------------------------------------]
[-----------------------------------------------------]
[-----------------------------------------------------]
[-----------------------------------------------------]
[-----------------------------------------------------]
[--0--s7--s10~~--0-3v--0-3v--0--s7--s5~~--0-0-0-3v-3--]

[-----------------------------------------------------]
[-----------------------------------------------------]
[-----------------------------------------------------]
[-----------------------------------------------------]
[-----------------------------------------------------]
[--0--s7--s10~~--0-3v--0-3v--0--s7--s5~~--0-3v--0-3v--]

[------------------------------------]
[------------------------------------]
[------------------------------------]
[------------------------------------]
[------------------------------------]
[--0-3-5-0-8-7-0-10-8-7-5-7-0-3-5-3--]
   . . . . . . .  . . . . . . . . .
[-----------------------------------]
[-----------------------------------]
[-----------------------------------]
[-----------------------------------]
[-----------------------------------]
[--0-3-5-0-8-7-0-10-8-7-5-7-0-3--3--]
   . . . . . . .  . . . . . . .  .
[------------------------------------]
[------------------------------------]
[------------------------------------]
[------------------------------------]
[------------------------------------]
[--0-3-5-0-8-7-0-10-8-7-5-7-0-3-5-3--]
   . . . . . . .  . . . . . . . . .
[--------------------------------]
[--------------------------------]
[--------------------------------]
[-----------------------------3--]
[-----------------------------3--]
[--0-3-5-0-8-7-0-10-8-7-5-7-0-3--]
   . . . . . . .  . . . . . . 
[---------------------------------]4x
[---------------------------------]
[---------------------------------]
[--0--3-5-0-8-7-0-10-8-7-5-7-0-3--]
[--0--3-5-0-8-7-0-10-8-7-5-7-0-3--]
[--0--3-5-0-8-7-0-10-8-7-5-7-0-3--]

[-------------------]
[-------------------]
[-------------------]
[--0---0---x-x-x-x--]
[--0---0---x-x-x-x--]
[--0---0---x-x-x-x--]

(Chorus 2) 2x

Outro
Gtr. 1
[--10~~~~~--]
[---x~~~~~--]
[---7~~~~~--]
[-----------]
[-----------]
[-----------]

Gtr. 2
[-------------------------------------------------------------]
[-------------------------------------------------------------]
[-------------------------------------------------------------]
[--0-0-0-0-3—-0-5—-0-8-8--0-3-5-0-0-0-0-3—-0-5--0-8-7--0-3-5--]
[--0-0-0-0-3—-0-5—-0-8-8--0-3-5-0-0-0-0-3—-0-5--0-8-7--0-3-5--]
[--0-0-0-0-3—-0-5--0-8-8--0-3-5-0-0-0-0-3—-0-5--0-8-7--0-3-5--]

            
            
Suggest correction
Creating personal tab
Creating personal tab
You can edit any tab online and save it as your Personal.

You can edit, replace or remove any tab part or add personal notes – all changes will be seen only by you.

Personal tabs can be accessed anytime from any device, even offline.
Learn more »
Give kudos to tab author, rate the tab!
1 2 3 4 5
comments
print report bad tab
guest
You may want to rate the tab now too:
select rating
Wanna post a correction for this tab? Suggest correction