Oops, an error
Loading. Please wait.

Unbelievable Bass Tab

version 1
version 1

Whole song

803 views 1 this week
no commentswrite comment
1 2 3 4 5
2 more votes to show rating
add to favorites
launch autoscroll
font size
0
reset
guitar tuner
Autoscroll
slow
fast
+/-
esc
set tempo
stop
Help us to improve Ultimate-Guitar.com Take our survey!
×
Band- Thousand Foot Krutch
Song- Unbelievable

Intro:
 ---------------------------------------------------------|
 ---------------------------------------------------------|
 ----------2-2-2-3-3/4------2-2-2--------------2-2-2-3-4--|
 4-4-4-2-4------------4-2-4-------5-54--4-2-4-------------|

Verse:
 --------------------|
 --------------------|
 ------------4-4-6-6-|
 4-2-4-2-4-2---------|

Chorus: (the things, you say.....)
-----------------------------------|
-----------------------------------|
------------44444/66-------------4-|
4-4---4-4------------4-4---4-4-----|

Chorus pt.2:(after "your unbeliveable")
 ---------------------------------------------------------|
 ---------------------------------------------------------|
 ----------2-2-2-3-3/4------2-2-2--------------2-2-2-3-4--|
 4-4-4-2-4------------4-2-4-------5-54--4-2-4-------------|

Intro x2
Verse x6
Chorus pt.1 x1
Chorus pt.2 x2
Verse x6
Chorus pt.1 x1
Chorus pt.2 x2
Verse x6
Chorus pt.1 x1
Chorus pt.2 x2
Suggest correction
Give kudos to tab author, rate the tab!
1 2 3 4 5
comments
print report bad tab
guest
You may want to rate the tab now too:
select rating
Wanna post a correction for this tab? Suggest correction