Oops, an error
Loading. Please wait.

Unbelievable Bass Tab

version 2
version 2

Whole song

392 views 3 this week
no commentswrite comment
1 2 3 4 5
3 more votes to show rating
add to favorites
launch autoscroll
font size
0
reset
guitar tuner
Autoscroll
slow
fast
+/-
esc
set tempo
stop
Help us to improve Ultimate-Guitar.com Take our survey!
×
Author
-------------------------------------------------------------------------------
	Unbelievable - Thousand Foot Krutch
-------------------------------------------------------------------------------

Tuning: Standard

Intro
G|-------------------------------------------|
D|-------------------------------------------|
A|-------2-02-33-44---2-02-02-2-----2-02-3-4-|
E|-4--4-------------------------4-4----------|x2

Verse
G|---------------------------------------|
D|---------------------------------------|
A|-------------------------4---4---6---6-|
E|-4--2--4--2--4--2--4--2----------------|x6

Chorus
G|------------------------------------------------|
D|------------------------------------------------|
A|---------------4--44--44--66------------------4-|
E|-4-4----4-4---------------------4-4----4-4------|

G|-------------------------------------------|
D|-------------------------------------------|
A|-------2-02-33-44---2-02-02-2-----2-02-3-4-|
E|-4--4-------------------------4-4----------|x2

Verse
G|---------------------------------------|
D|---------------------------------------|
A|-------------------------4---4---6---6-|
E|-4--2--4--2--4--2--4--2----------------|x6

Chorus
G|------------------------------------------------|
D|------------------------------------------------|
A|---------------4--44--44--66------------------4-|
E|-4-4----4-4---------------------4-4----4-4------|

G|-------------------------------------------|
D|-------------------------------------------|
A|-------2-02-33-44---2-02-02-2-----2-02-3-4-|
E|-4--4-------------------------4-4----------|x2

Verse
G|---------------------------------------|
D|---------------------------------------|
A|-------------------------4---4---6---6-|
E|-4--2--4--2--4--2--4--2----------------|x6

Chorus
G|------------------------------------------------|
D|------------------------------------------------|
A|---------------4--44--44--66------------------4-|
E|-4-4----4-4---------------------4-4----4-4------|

G|-------------------------------------------|
D|-------------------------------------------|
A|-------2-02-33-44---2-02-02-2-----2-02-3-4-|
E|-4--4-------------------------4-4----------|x2

I WILL BE TRYING TO MAKE AN ALBUM TAB FOR SET IT OFF


| /  slide up
| \  slide down
| h  hammer-on
| p  pull-off
| ~  let note ring
| +  harmonic
| x  Mute note
===============================================================================

Suggest correction
Give kudos to tab author, rate the tab!
1 2 3 4 5
comments
print report bad tab
guest
You may want to rate the tab now too:
select rating
Wanna post a correction for this tab? Suggest correction