Oops, an error
Loading. Please wait.
We have an official Untraveled Road tab made by UG professional guitarists. Check out the tab »
×

Untraveled Road tab

version 3
version 3

Whole song

  • Covering every element of the song, not just the power chords or just the intro.
  • My tabs version is diffrent because I try to inclu... Show more

Interactive

493 views 6 this week
no commentswrite comment
1 2 3 4 5
x 4
add to favorites
×
Save as Personal and add changes to this tab that will be seen only by you. Learn more ›
×
You can save this tab as Personal to edit and correct it or add notes. All changes will be seen only by you. Learn more »
launch autoscroll
font size
0
reset
how to read this tab
guitar tuner
edit
Autoscroll
slow
fast
+/-
esc
set tempo
stop
|---------------------- Untravelded Road - Thousand Foot Krutch ----------------------|

Tabbed by : ThreeDaysRobin
E-Mail    : Ilesius.Videos@gmail.com

Tuning: Drop C#

Note: This is how i play the song and it works just perfectly for me.
      It was a lot of afford for me to write this tab, 'cause the most tabs to this song are wrong, so 
      please rate it and let me know, how you like it.

[Verse]

D#|-----------------------------------------------------------------------------------|
A#|-----------------------------------------------------------------------------------|
F#|-----------------------------------------------------------------------------------|  [4x]
C#|-----7-----7-----7-----7-------10-----10-----10-----10-----------------------------|
G#|-5-5---5-5---5-5---5-5---5-8-8----8-8----8-8----8-8----8---------------------------|
C#|-----------------------------------------------------------------------------------|

D#|---------------------------------------------------------------------------|
A#|---10---10------13----13---------------------------------------------------|
F#|-7----7----7/10----10----10------------------------------------------------|  [2x]
C#|---------------------------------------------------------------------------|
G#|---------------------------------------------------------------------------|
C#|---------------------------------------------------------------------------|

[Pre-Chorus]

D#|---------------------------------------------------------------------------|
A#|---------------------------------------------------------------------------|
F#|---------------------------------------------------------------------------|  
C#|-2-x-x-x-2-2/5-x-x-x-5-5-0-x-x-x-0-0-7-x-x-x-7-5-2-------------------------|
G#|-2-x-x-x-2-2/5-x-x-x-5-5-0-x-x-x-0-0-7-x-x-x-7-5-2-------------------------|
C#|-2-x-x-x-2-2/5-x-x-x-5-5-0-x-x-x-0-0-7-x-x-x-7-5-2-------------------------|

D#|-----------------------------------------------------------------------|
A#|-----------------------------------------------------------------------|
F#|-----------------------------------------------------------------------|  
C#|-2-x-x-x-2-2/5-x-x-x-5-5-0-x-x-x-0-0-7---+-+-+-------------------------|
G#|-2-x-x-x-2-2/5-x-x-x-5-5-0-x-x-x-0-0-7---+-+-+-------------------------|
C#|-2-x-x-x-2-2/5-x-x-x-5-5-0-x-x-x-0-0-7---+-+-+-------------------------|

[!The Chorus has II guitars starting and ending at the same time!]

[Chorus]  (GUITAR I)

D#|---------------------------------------------------------------------------|
A#|---------------------------------------------------------------------------|
F#|---------------------------------------------------------------------------|  
C#|-2-2-2-2-2-2-2-2-5-5-5-5-5-5-5-5-0-0-0-0-0-0-0-0-7-7-7-7-7-7-5-5-----------|
G#|-2-2-2-2-2-2-2-2-5-5-5-5-5-5-5-5-0-0-0-0-0-0-0-0-7-7-7-7-7-7-5-5-----------|
C#|-2-2-2-2-2-2-2-2-5-5-5-5-5-5-5-5-0-0-0-0-0-0-0-0-7-7-7-7-7-7-5-5-----------|

D#|------------------------------------------------------------------------|  
A#|------------------------------------------------------------------------| this part is a little bit
F#|------------------------------------------------------------------------| tricky, just listen to the
C#|-2-2-2-2-2-2-2-2-5-5-5-5-5-5-5-5-0-0-0-0-0-0-0-0-7-7-7-7-5-5------------| song and figure the timing
G#|-2-2-2-2-2-2-2-2-5-5-5-5-5-5-5-5-0-0-0-0-0-0-0-0-7-7-7-7-5-5------------| out. 
C#|-2-2-2-2-2-2-2-2-5-5-5-5-5-5-5-5-0-0-0-0-0-0-0-0-7-7-7-7-5-5------------|

[Chorus]   (GUITAR II) 

D#|--------------------------------------------------------------------------------------|
A#|--------------------------------------------------------------------------------------|
F#|-9-9-9-9-9-9/11-11/12-12-12-12-12-12-14-14-12-12-12-12-12/13\12\9-9-9-9-9-9-7-7-------|  
C#|--------------------------------------------------------------------------------------|
G#|-7-7-7-7-7-7/-9-9-/10-10-10-10-10-10-12-12-10-10-10-10-10/11\10\7-7-7-7-7-7-5-5-------|
C#|--------------------------------------------------------------------------------------|

D#|------------------------------------------------------------------------------|  
A#|------------------------------------------------------------------------------| this part is a little bit
F#|-9-9-9-9-9-9/11-11/12-12-12-12-12-12-14-14-12-12-12-12-12/13\12\9-9-9-9-9-7---| tricky, just listen to the
C#|------------------------------------------------------------------------------| song and figure the timing
G#|-7-7-7-7-7-7/-9-9-/10-10-10-10-10-10-12-12-10-10-10-10-10/11\10\7-7-7-7-7-5---| out. 
C#|------------------------------------------------------------------------------|

[Verse]

D#|-----------------------------------------------------------------------------------|
A#|-----------------------------------------------------------------------------------|
F#|-----------------------------------------------------------------------------------|  [3x]
C#|-----7-----7-----7-----7-------10-----10-----10-----10-----------------------------|
G#|-5-5---5-5---5-5---5-5---5-8-8----8-8----8-8----8-8----8---------------------------|
C#|-----------------------------------------------------------------------------------|

D#|---------------------------------------------------------------------------|
A#|---10---10------13----13---------------------------------------------------|
F#|-7----7----7/10----10----10------------------------------------------------|  [2x]
C#|---------------------------------------------------------------------------|
G#|---------------------------------------------------------------------------|
C#|---------------------------------------------------------------------------|


[Pre-Chorus]

D#|---------------------------------------------------------------------------|
A#|---------------------------------------------------------------------------|
F#|---------------------------------------------------------------------------|  
C#|-2-x-x-x-2-2/5-x-x-x-5-5-0-x-x-x-0-0-7-x-x-x-7-5-2-------------------------|
G#|-2-x-x-x-2-2/5-x-x-x-5-5-0-x-x-x-0-0-7-x-x-x-7-5-2-------------------------|
C#|-2-x-x-x-2-2/5-x-x-x-5-5-0-x-x-x-0-0-7-x-x-x-7-5-2-------------------------|

D#|-----------------------------------------------------------------------|
A#|-----------------------------------------------------------------------|
F#|-----------------------------------------------------------------------|  
C#|-2-x-x-x-2-2/5-x-x-x-5-5-0-x-x-x-0-0-7---+-+-+-------------------------|
G#|-2-x-x-x-2-2/5-x-x-x-5-5-0-x-x-x-0-0-7---+-+-+-------------------------|
C#|-2-x-x-x-2-2/5-x-x-x-5-5-0-x-x-x-0-0-7---+-+-+-------------------------|


[Chorus]  (GUITAR I)

D#|---------------------------------------------------------------------------|
A#|---------------------------------------------------------------------------|
F#|---------------------------------------------------------------------------|  
C#|-2-2-2-2-2-2-2-2-5-5-5-5-5-5-5-5-0-0-0-0-0-0-0-0-7-7-7-7-7-7-5-5-----------|
G#|-2-2-2-2-2-2-2-2-5-5-5-5-5-5-5-5-0-0-0-0-0-0-0-0-7-7-7-7-7-7-5-5-----------|
C#|-2-2-2-2-2-2-2-2-5-5-5-5-5-5-5-5-0-0-0-0-0-0-0-0-7-7-7-7-7-7-5-5-----------|

D#|------------------------------------------------------------------------|  
A#|------------------------------------------------------------------------| 
F#|------------------------------------------------------------------------| 
C#|-2-2-2-2-2-2-2-2-5-5-5-5-5-5-5-5-0-0-0-0-0-0-0-0-7-7-7-7-5-5------------| 
G#|-2-2-2-2-2-2-2-2-5-5-5-5-5-5-5-5-0-0-0-0-0-0-0-0-7-7-7-7-5-5------------|  
C#|-2-2-2-2-2-2-2-2-5-5-5-5-5-5-5-5-0-0-0-0-0-0-0-0-7-7-7-7-5-5------------|

D#|---------------------------------------------------------------------------|
A#|---------------------------------------------------------------------------|
F#|---------------------------------------------------------------------------|  
C#|-2-2-2-2-2-2-2-2-5-5-5-5-5-5-5-5-0-0-0-0-0-0-0-0-7-7-7-7-7-7-5-5-----------|
G#|-2-2-2-2-2-2-2-2-5-5-5-5-5-5-5-5-0-0-0-0-0-0-0-0-7-7-7-7-7-7-5-5-----------|
C#|-2-2-2-2-2-2-2-2-5-5-5-5-5-5-5-5-0-0-0-0-0-0-0-0-7-7-7-7-7-7-5-5-----------|

D#|------------------------------------------------------------------------|  
A#|------------------------------------------------------------------------| 
F#|------------------------------------------------------------------------|  
C#|-2-2-2-2-2-2-2-2-5-5-5-5-5-5-5-5-0-0-0-0-0-0-0-0-7-7-7-7-5-5------------| 
G#|-2-2-2-2-2-2-2-2-5-5-5-5-5-5-5-5-0-0-0-0-0-0-0-0-7-7-7-7-5-5------------|
C#|-2-2-2-2-2-2-2-2-5-5-5-5-5-5-5-5-0-0-0-0-0-0-0-0-7-7-7-7-5-5------------|

[Chorus]   (GUITAR II)

D#|--------------------------------------------------------------------------------------|
A#|--------------------------------------------------------------------------------------|
F#|-9-9-9-9-9-9/11-11/12-12-12-12-12-12-14-14-12-12-12-12-12/13\12\9-9-9-9-9-9-7-7-------|  
C#|--------------------------------------------------------------------------------------|
G#|-7-7-7-7-7-7/-9-9-/10-10-10-10-10-10-12-12-10-10-10-10-10/11\10\7-7-7-7-7-7-5-5-------|
C#|--------------------------------------------------------------------------------------|

D#|-------------------------------------------------------------------------------|  
A#|-------------------------------------------------------------------------------| 
F#|-9-9-9-9-9-9/11-11/12-12-12-12-12-12-14-14-12-12-12-12-12/13\12\9-9-9-9-9-7----| 
C#|-------------------------------------------------------------------------------| 
G#|-7-7-7-7-7-7/-9-9-/10-10-10-10-10-10-12-12-10-10-10-10-10/11\10\7-7-7-7-7-5----| 
C#|-------------------------------------------------------------------------------|
 
D#|--------------------------------------------------------------------------------------|
A#|--------------------------------------------------------------------------------------|
F#|-9-9-9-9-9-9/11-11/12-12-12-12-12-12-14-14-12-12-12-12-12/13\12\9-9-9-9-9-9-7-7-------|  
C#|--------------------------------------------------------------------------------------|
G#|-7-7-7-7-7-7/-9-9-/10-10-10-10-10-10-12-12-10-10-10-10-10/11\10\7-7-7-7-7-7-5-5-------|
C#|--------------------------------------------------------------------------------------|

D#|-------------------------------------------------------------------------------|  
A#|-------------------------------------------------------------------------------| 
F#|-9-9-9-9-9-9/11-11/12-12-12-12-12-12-14-14-12-12-12-12-12/13\12\9-9-9-9-9-7----|  
C#|-------------------------------------------------------------------------------| 
G#|-7-7-7-7-7-7/-9-9-/10-10-10-10-10-10-12-12-10-10-10-10-10/11\10\7-7-7-7-7-5----| 
C#|-------------------------------------------------------------------------------|

[Bridge]

D#|--------------------------------------------------------------------------|
A#|-3-3-3-3-3-3-4-4-5-5-5-5-5-5-8-8-5-5-5-5-5-6-5-5-4-4-4-4-4-4-1-1----------|
F#|--------------------------------------------------------------------------| [3x]
C#|--------------------------------------------------------------------------|
G#|--------------------------------------------------------------------------|
C#|--------------------------------------------------------------------------|

D#|--------------------------------------------------------------------------|
A#|-3-3-3-3-3-3-4-4-5-5-5-5-5-5-8-8-5-5-5-5-5-6-5-5-4------------------------|
F#|--------------------------------------------------------------------------| 
C#|--------------------------------------------------------------------------|
G#|--------------------------------------------------------------------------|
C#|--------------------------------------------------------------------------|

[Chorus]  (GUITAR I)

D#|---------------------------------------------------------------------------|
A#|---------------------------------------------------------------------------|
F#|---------------------------------------------------------------------------|  
C#|-2-2-2-2-2-2-2-2-5-5-5-5-5-5-5-5-0-0-0-0-0-0-0-0-7-7-7-7-7-7-5-5-----------|
G#|-2-2-2-2-2-2-2-2-5-5-5-5-5-5-5-5-0-0-0-0-0-0-0-0-7-7-7-7-7-7-5-5-----------|
C#|-2-2-2-2-2-2-2-2-5-5-5-5-5-5-5-5-0-0-0-0-0-0-0-0-7-7-7-7-7-7-5-5-----------|

D#|------------------------------------------------------------------------|  
A#|------------------------------------------------------------------------| 
F#|------------------------------------------------------------------------| 
C#|-2-2-2-2-2-2-2-2-5-5-5-5-5-5-5-5-0-0-0-0-0-0-0-0-7-7-7-7-5-5------------| 
G#|-2-2-2-2-2-2-2-2-5-5-5-5-5-5-5-5-0-0-0-0-0-0-0-0-7-7-7-7-5-5------------|  
C#|-2-2-2-2-2-2-2-2-5-5-5-5-5-5-5-5-0-0-0-0-0-0-0-0-7-7-7-7-5-5------------|

D#|---------------------------------------------------------------------------|
A#|---------------------------------------------------------------------------|
F#|---------------------------------------------------------------------------|  
C#|-2-2-2-2-2-2-2-2-5-5-5-5-5-5-5-5-0-0-0-0-0-0-0-0-7-7-7-7-7-7-5-5-----------|
G#|-2-2-2-2-2-2-2-2-5-5-5-5-5-5-5-5-0-0-0-0-0-0-0-0-7-7-7-7-7-7-5-5-----------|
C#|-2-2-2-2-2-2-2-2-5-5-5-5-5-5-5-5-0-0-0-0-0-0-0-0-7-7-7-7-7-7-5-5-----------|

D#|------------------------------------------------------------------------|  
A#|------------------------------------------------------------------------| 
F#|------------------------------------------------------------------------|  
C#|-2-2-2-2-2-2-2-2-5-5-5-5-5-5-5-5-0-0-0-0-0-0-0-0-7-7-7-7-5-5------------| 
G#|-2-2-2-2-2-2-2-2-5-5-5-5-5-5-5-5-0-0-0-0-0-0-0-0-7-7-7-7-5-5------------|
C#|-2-2-2-2-2-2-2-2-5-5-5-5-5-5-5-5-0-0-0-0-0-0-0-0-7-7-7-7-5-5------------|

D#|---------------------------------------------------------------------------|
A#|---------------------------------------------------------------------------|
F#|---------------------------------------------------------------------------|  
C#|-2-2-2-2-2-2-2-2-5-5-5-5-5-5-5-5-0-0-0-0-0-0-0-0-7-7-7-7-7-7-5-5-----------|
G#|-2-2-2-2-2-2-2-2-5-5-5-5-5-5-5-5-0-0-0-0-0-0-0-0-7-7-7-7-7-7-5-5-----------|
C#|-2-2-2-2-2-2-2-2-5-5-5-5-5-5-5-5-0-0-0-0-0-0-0-0-7-7-7-7-7-7-5-5-----------|

D#|------------------------------------------------------------------------|  
A#|------------------------------------------------------------------------| 
F#|------------------------------------------------------------------------| 
C#|-2-2-2-2-2-2-2-2-5-5-5-5-5-5-5-5-0-0-0-0-0-0-0-0-7-7-7-7-5-5------------| 
G#|-2-2-2-2-2-2-2-2-5-5-5-5-5-5-5-5-0-0-0-0-0-0-0-0-7-7-7-7-5-5------------|  
C#|-2-2-2-2-2-2-2-2-5-5-5-5-5-5-5-5-0-0-0-0-0-0-0-0-7-7-7-7-5-5------------|

D#|---------------------------------------------------------------------------|
A#|---------------------------------------------------------------------------|
F#|---------------------------------------------------------------------------|  
C#|-2-2-2-2-2-2-2-2-5-5-5-5-5-5-5-5-0-0-0-0-0-0-0-0-7-7-7-7-7-7-5-5-----------|
G#|-2-2-2-2-2-2-2-2-5-5-5-5-5-5-5-5-0-0-0-0-0-0-0-0-7-7-7-7-7-7-5-5-----------|
C#|-2-2-2-2-2-2-2-2-5-5-5-5-5-5-5-5-0-0-0-0-0-0-0-0-7-7-7-7-7-7-5-5-----------|

D#|------------------------------------------------------------------------|  
A#|------------------------------------------------------------------------| 
F#|------------------------------------------------------------------------|  
C#|-2-2-2-2-2-2-2-2-5-5-5-5-5-5-5-5-0-0-0-0-0-0-0-0-7-7-7-7-5-5------------| 
G#|-2-2-2-2-2-2-2-2-5-5-5-5-5-5-5-5-0-0-0-0-0-0-0-0-7-7-7-7-5-5------------|
C#|-2-2-2-2-2-2-2-2-5-5-5-5-5-5-5-5-0-0-0-0-0-0-0-0-7-7-7-7-5-5------------|

[Chorus]   (GUITAR II)

D#|--------------------------------------------------------------------------------------|
A#|--------------------------------------------------------------------------------------|
F#|-9-9-9-9-9-9/11-11/12-12-12-12-12-12-14-14-12-12-12-12-12/13\12\9-9-9-9-9-9-7-7-------|  
C#|--------------------------------------------------------------------------------------|
G#|-7-7-7-7-7-7/-9-9-/10-10-10-10-10-10-12-12-10-10-10-10-10/11\10\7-7-7-7-7-7-5-5-------|
C#|--------------------------------------------------------------------------------------|

D#|-------------------------------------------------------------------------------|  
A#|-------------------------------------------------------------------------------| 
F#|-9-9-9-9-9-9/11-11/12-12-12-12-12-12-14-14-12-12-12-12-12/13\12\9-9-9-9-9-7----| 
C#|-------------------------------------------------------------------------------| 
G#|-7-7-7-7-7-7/-9-9-/10-10-10-10-10-10-12-12-10-10-10-10-10/11\10\7-7-7-7-7-5----| 
C#|-------------------------------------------------------------------------------|
 
D#|--------------------------------------------------------------------------------------|
A#|--------------------------------------------------------------------------------------|
F#|-9-9-9-9-9-9/11-11/12-12-12-12-12-12-14-14-12-12-12-12-12/13\12\9-9-9-9-9-9-7-7-------|  
C#|--------------------------------------------------------------------------------------|
G#|-7-7-7-7-7-7/-9-9-/10-10-10-10-10-10-12-12-10-10-10-10-10/11\10\7-7-7-7-7-7-5-5-------|
C#|--------------------------------------------------------------------------------------|

D#|-------------------------------------------------------------------------------|  
A#|-------------------------------------------------------------------------------| 
F#|-9-9-9-9-9-9/11-11/12-12-12-12-12-12-14-14-12-12-12-12-12/13\12\9-9-9-9-9-7----|  
C#|-------------------------------------------------------------------------------| 
G#|-7-7-7-7-7-7/-9-9-/10-10-10-10-10-10-12-12-10-10-10-10-10/11\10\7-7-7-7-7-5----| 
C#|-------------------------------------------------------------------------------|

D#|--------------------------------------------------------------------------------------|
A#|--------------------------------------------------------------------------------------|
F#|-9-9-9-9-9-9/11-11/12-12-12-12-12-12-14-14-12-12-12-12-12/13\12\9-9-9-9-9-9-7-7-------|  
C#|--------------------------------------------------------------------------------------|
G#|-7-7-7-7-7-7/-9-9-/10-10-10-10-10-10-12-12-10-10-10-10-10/11\10\7-7-7-7-7-7-5-5-------|
C#|--------------------------------------------------------------------------------------|

D#|-------------------------------------------------------------------------------|  
A#|-------------------------------------------------------------------------------| 
F#|-9-9-9-9-9-9/11-11/12-12-12-12-12-12-14-14-12-12-12-12-12/13\12\9-9-9-9-9-7----| 
C#|-------------------------------------------------------------------------------| 
G#|-7-7-7-7-7-7/-9-9-/10-10-10-10-10-10-12-12-10-10-10-10-10/11\10\7-7-7-7-7-5----| 
C#|-------------------------------------------------------------------------------|
 
D#|--------------------------------------------------------------------------------------|
A#|--------------------------------------------------------------------------------------|
F#|-9-9-9-9-9-9/11-11/12-12-12-12-12-12-14-14-12-12-12-12-12/13\12\9-9-9-9-9-9-7-7-------|  
C#|--------------------------------------------------------------------------------------|
G#|-7-7-7-7-7-7/-9-9-/10-10-10-10-10-10-12-12-10-10-10-10-10/11\10\7-7-7-7-7-7-5-5-------|
C#|--------------------------------------------------------------------------------------|

D#|-------------------------------------------------------------------------------|  
A#|-------------------------------------------------------------------------------| 
F#|-9-9-9-9-9-9/11-11/12-12-12-12-12-12-14-14-12-12-12-12-12/13\12\9-9-9-9-9-7----|  
C#|-------------------------------------------------------------------------------| 
G#|-7-7-7-7-7-7/-9-9-/10-10-10-10-10-10-12-12-10-10-10-10-10/11\10\7-7-7-7-7-5----| 
C#|-------------------------------------------------------------------------------|





************************************

| +   Harmonic
| x   Dead note
| /   Slide up
| \   Slide down

************************************

            
            
Suggest correction
Creating personal tab
Creating personal tab
You can edit any tab online and save it as your Personal.

You can edit, replace or remove any tab part or add personal notes – all changes will be seen only by you.

Personal tabs can be accessed anytime from any device, even offline.
Learn more »
comments
print report bad tab
guest
You may want to rate the tab now too:
select rating
Wanna post a correction for this tab? Suggest correction