Oops, an error
Loading. Please wait.

Untraveled Road tab

version 4
version 4

Whole song

  • Covering every element of the song, not just the power chords or just the intro.
  • My tabs version is diffrent because I try to inclu... Show more

Interactive

271 views 3 this week
1 commentread comment
1 2 3 4 5
2 more votes to show rating
add to favorites
×
Save as Personal and add changes to this tab that will be seen only by you. Learn more ›
×
You can save this tab as Personal to edit and correct it or add notes. All changes will be seen only by you. Learn more »
launch autoscroll
font size
0
reset
how to read this tab
guitar tuner
edit
Autoscroll
slow
fast
+/-
esc
set tempo
stop
Author
Difficulty
About this tab version
Covering every element of the song, not just the power chords or just the intro. Was this info helpful? Yes No
Song: https://www.youtube.com/watch?v=jSD5vSSGLOM

[Intro]

e|----------------------------------------------------------------|
B|----------------------------------------------------------------|
G|----------------------------------------------------------------|
D|------6------6------6------6---------9-------9-------9-------9--|
A|--4-4----4-4----4-4----4-4---4/7-7-7-----7-7-----7-7-----7-7----|
E|----------------------------------------------------------------|


[Hold on for a second... (0:08)]

e|--------------------------------------------------------------------|
B|--------------------------------------------------------------------|
G|--------------------------------------------------------------------| x2
D|----------6------6------6------6---------9-------9-------9-------9--|
A|--7\4-4-4----4-4----4-4----4-4---4/7-7-7-----7-7-----7-7-----7-7----|
E|--------------------------------------------------------------------|


['Cause one voice is enough... (0:23)]

e|---------------------------------|
B|--------------------12----12-----|
G|-----13----13--------------------| x2
D|--11----11----11-14----14----14--|
A|---------------------------------|
E|---------------------------------|


[So stand up... (0:38)]

e|--------------------|--------------------|--------------------|---------------------|
B|--------------------|--------------------|--------------------|---------------------|
G|--6-----------6--6--|--9-----------9--9--|--4-----------4--4--|--11----------11--9--|
D|--6-----------6--6--|--9-----------9--9--|--4-----------4--4--|--11----------11--9--|
A|--4--4--4--4--4--4--|--7--7--7--7--7--7--|--2--2--2--2--2--2--|--9--9--9--9--9---7--|
E|--------------------|--------------------|--------------------|---------------------|

e|--------------------|--------------------|--------------------|-----------------------|
B|--------------------|--------------------|--------------------|-----------------------|
G|--6-----------6--6--|--9-----------9--9--|--4-----------4--4--|--11--mute-------------|
D|--6-----------6--6--|--9-----------9--9--|--4-----------4--4--|--11--mute-------------|
A|--4--4--4--4--4--4--|--7--7--7--7--7--7--|--2--2--2--2--2--2--|--9---mute-------------|
E|--------------------|--------------------|--------------------|-----------------------|


[When we scream... (0:54)]

e|-------------------|-------------------|-------------------|---------------------------|
B|-------------------|-------------------|-------------------|---------------------------|
G|--6-6-6-6-6-6-6-6--|--9-9-9-9-9-9-9-9--|--4-4-4-4-4-4-4-4--|--11-11-11-11-11-11-11-11--|
D|--6-6-6-6-6-6-6-6--|--9-9-9-9-9-9-9-9--|--4-4-4-4-4-4-4-4--|--11-11-11-11-11-11-11-11--|
A|--4-4-4-4-4-4-4-4--|--7-7-7-7-7-7-7-7--|--2-2-2-2-2-2-2-2--|--9--9--9--9--9--9--9--9---|
E|-------------------|-------------------|-------------------|---------------------------|

e|-------------------|-------------------|-------------------|----------------------------|
B|-------------------|-------------------|-------------------|----------------------------|
G|--6-6-6-6-6-6-6-6--|--9-9-9-9-9-9-9-9--|--4-4-4-4-4-4-4-4--|--11-11-11-11------9--9--6--|
D|--6-6-6-6-6-6-6-6--|--9-9-9-9-9-9-9-9--|--4-4-4-4-4-4-4-4--|--11-11-11-11------9--9--6--|
A|--4-4-4-4-4-4-4-4--|--7-7-7-7-7-7-7-7--|--2-2-2-2-2-2-2-2--|--9--9--9--9-------7--7--4--|
E|-------------------|-------------------|-------------------|----------------------------|


[1:09]

e|----------------------------------------------------------------|
B|----------------------------------------------------------------|
G|----------------------------------------------------------------|
D|------6------6------6------6---------9-------9-------9-------9--|
A|--4-4----4-4----4-4----4-4---4/7-7-7-----7-7-----7-7-----7-7----|
E|----------------------------------------------------------------|

e|--------------------------------------------------------------------|
B|--------------------------------------------------------------------|
G|--------------------------------------------------------------------| x2
D|----------6------6------6------6---------9-------9-------9-------9--|
A|--7\4-4-4----4-4----4-4----4-4---4/7-7-7-----7-7-----7-7-----7-7----|
E|--------------------------------------------------------------------|


[1:32]

e|---------------------------------|
B|--------------------12----12-----|
G|-----13----13--------------------| x2
D|--11----11----11-14----14----14--|
A|---------------------------------|
E|---------------------------------|



[So stand up... (1:47)]

e|--------------------|--------------------|--------------------|---------------------|
B|--------------------|--------------------|--------------------|---------------------|
G|--6-----------6--6--|--9-----------9--9--|--4-----------4--4--|--11----------11--9--|
D|--6-----------6--6--|--9-----------9--9--|--4-----------4--4--|--11----------11--9--|
A|--4--4--4--4--4--4--|--7--7--7--7--7--7--|--2--2--2--2--2--2--|--9--9--9--9--9---7--|
E|--------------------|--------------------|--------------------|---------------------|

e|--------------------|--------------------|--------------------|-----------------------|
B|--------------------|--------------------|--------------------|-----------------------|
G|--6-----------6--6--|--9-----------9--9--|--4-----------4--4--|--11--mute-------------|
D|--6-----------6--6--|--9-----------9--9--|--4-----------4--4--|--11--mute-------------|
A|--4--4--4--4--4--4--|--7--7--7--7--7--7--|--2--2--2--2--2--2--|--9---mute-------------|
E|--------------------|--------------------|--------------------|-----------------------|


[When we scream... (2:03)]
e|-------------------|-------------------|-------------------|---------------------------|
B|-------------------|-------------------|-------------------|---------------------------|
G|--6-6-6-6-6-6-6-6--|--9-9-9-9-9-9-9-9--|--4-4-4-4-4-4-4-4--|--11-11-11-11-11-11-11-11--|
D|--6-6-6-6-6-6-6-6--|--9-9-9-9-9-9-9-9--|--4-4-4-4-4-4-4-4--|--11-11-11-11-11-11-11-11--|
A|--4-4-4-4-4-4-4-4--|--7-7-7-7-7-7-7-7--|--2-2-2-2-2-2-2-2--|--9--9--9--9--9--9--9--9---|
E|-------------------|-------------------|-------------------|---------------------------|

e|-------------------|-------------------|-------------------|----------------------------|
B|-------------------|-------------------|-------------------|----------------------------|
G|--6-6-6-6-6-6-6-6--|--9-9-9-9-9-9-9-9--|--4-4-4-4-4-4-4-4--|--11-11-11-11------9--9--6--| x2
D|--6-6-6-6-6-6-6-6--|--9-9-9-9-9-9-9-9--|--4-4-4-4-4-4-4-4--|--11-11-11-11------9--9--6--|
A|--4-4-4-4-4-4-4-4--|--7-7-7-7-7-7-7-7--|--2-2-2-2-2-2-2-2--|--9--9--9--9-------7--7--4--|
E|-------------------|-------------------|-------------------|----------------------------|


[2:33]

e|-------------------------------------------------------------------|
B|-------------------------------------------------------------------|
G|--6-6-6-6-6-6-8-8-9-9-9-9-9-9-11-11-8-8-8-8-8-9-8-6-6-6-6-6-6-4-4--| x3
D|-------------------------------------------------------------------|
A|-------------------------------------------------------------------|
E|-------------------------------------------------------------------|

e|-----------------------------------------------------|
B|-----------------------------------------------------|
G|--6-6-6-6-6-6-8-8-9-9-9-9-9-9-11-11-8-8-8-8-8-9-8-6--|
D|-----------------------------------------------------|
A|-----------------------------------------------------|
E|-----------------------------------------------------|


[When we scream... (3:04)]

e|-------------------|-------------------|-------------------|---------------------------|
B|-------------------|-------------------|-------------------|---------------------------|
G|--6-6-6-6-6-6-6-6--|--9-9-9-9-9-9-9-9--|--4-4-4-4-4-4-4-4--|--11-11-11-11-11-11-11-11--|
D|--6-6-6-6-6-6-6-6--|--9-9-9-9-9-9-9-9--|--4-4-4-4-4-4-4-4--|--11-11-11-11-11-11-11-11--|
A|--4-4-4-4-4-4-4-4--|--7-7-7-7-7-7-7-7--|--2-2-2-2-2-2-2-2--|--9--9--9--9--9--9--9--9---|
E|-------------------|-------------------|-------------------|---------------------------|

e|-------------------|-------------------|-------------------|----------------------------|
B|-------------------|-------------------|-------------------|----------------------------|
G|--6-6-6-6-6-6-6-6--|--9-9-9-9-9-9-9-9--|--4-4-4-4-4-4-4-4--|--11-11-11-11------9--9--6--| x3
D|--6-6-6-6-6-6-6-6--|--9-9-9-9-9-9-9-9--|--4-4-4-4-4-4-4-4--|--11-11-11-11------9--9--6--|
A|--4-4-4-4-4-4-4-4--|--7-7-7-7-7-7-7-7--|--2-2-2-2-2-2-2-2--|--9--9--9--9-------7--7--4--|
E|-------------------|-------------------|-------------------|----------------------------|

************************************

| x   Dead note
| g   Grace note
| (n) Ghost note
| h   Hammer-on
| p   Pull-off
| r   Release
| >   Accented note
| t   Tapping
| b   Bend
| br  Bend release
| pb  Pre-bend
| pbr Pre-bend release
| /   Slide up
| \   Slide down
| ~   Vibrato
| s   Slap
| P   Pop
| PM  Palm mute
| TR  Trill
| N   Tremolo

************************************

            
            
Suggest correction
Creating personal tab
Creating personal tab
You can edit any tab online and save it as your Personal.

You can edit, replace or remove any tab part or add personal notes – all changes will be seen only by you.

Personal tabs can be accessed anytime from any device, even offline.
Learn more »
Give kudos to tab author, rate the tab!
1 2 3 4 5
comments
print report bad tab
1 comment total.
0 reply
leagueofxinzhao 33 Jul 28, 2016 05:01 AM

Accidently did this tab using a guitar tuned in Eb. I have now fixed the issue so it goes along with the song on a standard tuned guitar.

guest
You may want to rate the tab now too:
select rating
Wanna post a correction for this tab? Suggest correction