Oops, an error
Loading. Please wait.

Untraveled Road Tab

version 5
version 5

Whole song

  • Covering every element of the song, not just the power chords or just the intro.
  • My tabs version is diffrent because I try to inclu... Show more

Interactive

85 views 9 this week
no commentswrite comment
1 2 3 4 5
1 last vote to show rating
add to favorites
launch autoscroll
font size
0
reset
how to read this tab
guitar tuner
Autoscroll
slow
fast
+/-
esc
set tempo
stop
Help us to improve Ultimate-Guitar.com Take our survey!
×
Author
Difficulty
Tuning
advanced
B F# B E G# C#
About this tab version
My tabs version is diffrent because I try to include many details on how to play it and I never miss a note (mostly :D). Was this info helpful? Yes No
Song: Untraveled Road
Band: Thousand Foot Krutch
Tabbed by: Adrenaline16
Tuning: Drop B (B F# B E G# C#)
Symbols used:

************************************

| x   Dead note
| *  Palm mute
| ~   Tremolo

************************************
[Intro]
Hold on for a second, if words can be weapons, than what I say can effect it, they're not just words on 
a record, and I can choose to respect it, or choose to infect it, but once it hits the water its to late
to be selective
C#|---------------------------------------------------------------------------|
G#|---------------------------------------------------------------------------|
E |---------------------------------------------------------------------------|
B |----9----9----9----9-------12------12-------12------12---------------------|x2/3
F#|7-7--7-7--7-7--7-7---10-10---10-10----10-10---10-10------------------------|
B |---------------------------------------------------------------------------|

Because one voice is enough, to make sleeping giants wake up, to make army's put their hands up,
and watch whole nations stand up, it's one belief one spark, one faith and one restart, but we
can reboot the whole chart, before it all falls apart, 
C#|---------------------------------------------------------------------------|
G#|--12---12---15---15--------------------------------------------------------|
E |9----9---12---12-----------------------------------------------------------|x2
B |---------------------------------------------------------------------------|
F#|---------------------------------------------------------------------------|
B |---------------------------------------------------------------------------|


[Verse]

So stand up, shout it out, put em' in the air if you like it loud, we only got one shot, so lets make it
count, it's a take down nobody can stop us now, stand up shout it out, sing it loud so the world can't
drown us out but, before we depart, lets leave a mark, because the light shines brighter in the dark!
C#|---------------------------------------------------------------------------|
G#|---------------------------------------------------------------------------|
E |---------------------------------------------------------------------------|
B |2-2-2-2-2-2-5-5-5-5-5-5-5-5-0-0-0-0-7-7-7-7-7-5----------------------------|x2
F#|2-2-2-2-2-2-5-5-5-5-5-5-0-0-0-0-0-0-7-7-7-7-7-5----------------------------|
B |2-2-2-2-2-2-5-5-5-5-5-5-0-0-0-0-0-0-7-7-7-7-7-5----------------------------|
     ***         ***         ***         ***
Play the part above this and than play this, it doesn't matter where though!
C#|---------------------------------------------------------------------------|
G#|---------------------------------------------------------------------------|
E |---------------------------------------------------------------------------|
B |-xxx-xx--------------------------------------------------------------------|
F#|-xxx-xx--------------------------------------------------------------------|
B |-xxx-xx--------------------------------------------------------------------|


[Chorus]
when we scream, our lips don't make a sound, we march with feet on solid ground, we walk where no one
wants to go on this Untraveled Road!
C#|---------------------------------------------------------------------------|
G#|---------------------------------------------------------------------------|
E |---------------------------------------------------------------------------|
B |2-2-2-2-2-2-2-2-5-5-5-5-5-5-5-5-0-0-0-0-0-0-0-0-7-7-7-7-5-5-5--------------|x2
F#|2-2-2-2-2-2-2-2-5-5-5-5-5-5-5-5-0-0-0-0-0-0-0-0-7-7-7-7-5-5-5--------------|
B |2-2-2-2-2-2-2-2-5-5-5-5-5-5-5-5-0-0-0-0-0-0-0-0-7-7-7-7-5-5-5--------------|
Play the intro and verse again than play the chorus and here is the bridge :)
[Bridge]

C#|---------------------------------------------------------------------------|
G#|---------------------------------------------------------------------------|
E |9--------------------------------------------------------------------------|
B |---------------------12------------7----------------16---------14----------|
F#|---------------------------------------------------------------------------|
B |---------------------------------------------------------------------------|
   ~~~~~~~~~~~~~~~~~~~~~~~~~~~~~~~~~~~~~~~~~~~~~~~~~~~~~~~~~~~~~~~~~~~~~
I know that it may be off but just for the Tremolo just play with the song to get it correct!
that's how I did it :=)




************************************

| x   Dead note
| *  Palm mute
| ~   Tremolo

************************************
Suggest correction
Give kudos to tab author, rate the tab!
1 2 3 4 5
comments
print report bad tab
guest
You may want to rate the tab now too:
select rating
Wanna post a correction for this tab? Suggest correction