Oops, an error
Loading. Please wait.

Up Comes Down Bass Tab

355 views 1 this week
no commentswrite comment
1 2 3 4 5
2 more votes to show rating
add to favorites
launch autoscroll
font size
0
reset
guitar tuner
Autoscroll
slow
fast
+/-
esc
set tempo
stop
Help us to improve Ultimate-Guitar.com Take our survey!
×
Author
Tuning
D A D G B E
-------------------------------------------------------------------------------
	Up Comes Down - Thousand Foot Krutch
-------------------------------------------------------------------------------

Tuning: Drop D

Intro
G|--------|---------------------------------------|
D|--11/12-|-12-14--12-15--12-14--12-15--12-14-15--|
A|--------|---------------------------------------|
D|--------|---------------------------------------|

G|----------------------------------|
D|--12-14--12-15--12-14--x--15-15\--|
A|----------------------------------|
D|----------------------------------|

G|----------------------------------------|
D|--12-14--12-15--12-14--12-15--12-14-15--|
A|----------------------------------------|
D|----------------------------------------|

G|----------------------------------|
D|--12-14--12-15--12-14--x--15-15\--|
A|----------------------------------|
D|----------------------------------|

Verse
G|-----------------------------------------------------|    |------|
D|-----------------------------------------------------| x2 |------|
A|-----------------------------------------------------|    |------|
D|--00-2--0-3--0-2--0-3--023--00-2--0-3--0-2--0-5-5-5--|    |--0~--|

Pre-Chorus
G|------------------------------|
D|------------------------------| x8
A|------------------------------|
D|--x---x---0~---x---x---10/12--|

Chorus
G|------------------------------------------------------|
D|------------------------------------------------------| x2
A|------------------------------------------------------|
D|--000--000--000--00-335555--000--000--000--00-553333--|

Verse
G|-----------------------------------------------------|    |------|
D|-----------------------------------------------------| x2 |------|
A|-----------------------------------------------------|    |------|
D|--00-2--0-3--0-2--0-3--023--00-2--0-3--0-2--0-5-5-5--|    |--0~--|

Bass Solo/Bridge
G|----------------------------------------|
D|----------------------------------------| x10 (I think)
A|----------------------------------------|
D|--0--0-0-8/10~--x---10/12~--x---10/12~--|

~Break for guitar only~

Chorus
G|------------------------------------------------------|
D|------------------------------------------------------| x2
A|------------------------------------------------------|
D|--000--000--000--00-335555--000--000--000--00-553333--|

Outro
G|---------------------------|
D|---------------------------| x4
A|---------------------------|
D|--0-0-0-/12~---0-0-0-/12~--|

G|----------------------------------------|
D|--12-14--12-15--12-14--12-15--12-14-15--|
A|----------------------------------------|
D|----------------------------------------|

G|----------------------------------|
D|--12-14--12-15--12-14--x--15-15\--|
A|----------------------------------|
D|----------------------------------|

G|-----------------------------------------------------|   
D|-----------------------------------------------------| x4
A|-----------------------------------------------------|   
D|--00-2--0-3--0-2--0-3--023--00-2--0-3--0-2--0-5-5-5--|   

I WILL BE TRYING TO MAKE AN ALBUM TAB FOR SET IT OFF

| /  slide up
| \  slide down
| h  hammer-on
| p  pull-off
| ~  let note ring
| +  harmonic
| x  Mute note
===============================================================================
Suggest correction
Give kudos to tab author, rate the tab!
1 2 3 4 5
comments
print report bad tab
guest
You may want to rate the tab now too:
select rating
Wanna post a correction for this tab? Suggest correction