Oops, an error
Loading. Please wait.

War Of Change Bass Tab

version 1
version 1

Whole song

6,492 views 15 this week
2 commentsread comments
1 2 3 4 5
accurate
x 4
add to favorites
launch autoscroll
font size
0
reset
guitar tuner
Tab Pro tools
  • play this tab
  • loop segment
  • change instrument
  • show fretboard
  • metronome
×
Best way to learn
"War Of Change"
Autoscroll
slow
fast
+/-
esc
set tempo
stop
Contributor
Tuning
C G C F A D
-------------------------------------------------------------------------------
	War of Change - Thousand Foot Krutch
-------------------------------------------------------------------------------

Tuning: Drop C


  Intro/Verse (0:18 with drums)
F|---------------------------------------------|
C|---------------------------------------------|
G|------------1--1-1---1-3--3-3---3------------|
C|-5--5-5---5-----------------------3--3-3---3-|
  Chorus
F|-----------------------------------------------------------------|
C|-----------------------------------------------------------------|
G|---------------------------------3-3-3-3-3-3-3-3-1-1-1-1-1-1-----|
C|-5-5-5-5-5-5-5-5-3-3-3-3-3-3-3-3-----------------------------3~--|

F|-----------------------------------------------------------------|
C|-----------------------------------------------------------------|
G|---------------------------------3-3-3-3-3-3-3-3-1-1-1-1-1-1-1-1-|
C|-5-5-5-5-5-5-5-5-3-3-3-3-3-3-3-3---------------------------------|
  Verse
F|-------------------------------------------------------------|
C|-------------------------------------------------------------|
G|-------------------------------------------------------------|
C|-555---555---5\3-3/8\----5\3-3/8\----5\3-3/10\----5\3-3/8h10-|

F|------------------------------------------|
C|------------------------------------------|
G|---------1-----------1-----------1--------|
C|-3-5---3-----3-5---3-----3-5---3-----3-5~-|
  Chorus
F|-----------------------------------------------------------------|
C|-----------------------------------------------------------------|
G|---------------------------------3-3-3-3-3-3-3-3-1-1-1-1-1-1-----|
C|-5-5-5-5-5-5-5-5-3-3-3-3-3-3-3-3-----------------------------3~--|

F|-----------------------------------------------------------------|
C|-----------------------------------------------------------------|
G|---------------------------------3-3-3-3-3-3-3-3-1-1-1-1-1-1-1-1-|
C|-5-5-5-5-5-5-5-5-3-3-3-3-3-3-3-3---------------------------------|
  Bridge
F|------------------------------|   |------12-12-12--12-12-|
C|------------------------------|   |-12h15----------------|
G|---1---------------1----------|   |----------------------|
C|-1---3-2-1-x-x-x-1---3-2-xx-1-|x3 |----------------------|x3
  Chorus x2
F|-----------------------------------------------------------------|
C|-----------------------------------------------------------------|
G|---------------------------------3-3-3-3-3-3-3-3-1-1-1-1-1-1-----|
C|-5-5-5-5-5-5-5-5-3-3-3-3-3-3-3-3-----------------------------3~--|

F|-----------------------------------------------------------------|
C|-----------------------------------------------------------------|
G|-------------3-------------------3-3-3-3-3-3-3-3-1-1-1-1-1-1-1-1-|
C|-5-5-5-5-5-5---5-3-3-3-3-3-3-3-3---------------------------------|
  Outro
F|-------12-15--15/19\----------12--15-12~-|
C|--12h14------------------12h14-----------|
G|-----------------------------------------|
C|-----------------------------------------|x3

| /  slide up
| \  slide down
| h  hammer-on
| p  pull-off
| ~  let note ring
| +  harmonic
| x  Mute note
===============================================================================
comments
print report bad tab
2 comments total.
0 reply
PlayforChrist wrote on December 1 2013, 05:47 pm

I play the outro like:

F----------15-17-19~---------15-17--
C--17-15-17----------17-15-17-----17~
G
C

0 reply
damonfinegan2 wrote on May 4 2015, 12:51 pm

this song is in C#

I want to post or [tab]
guest
You may want to rate the tab now too:
select rating
Please do not post tabs as comments. Select "correction" instead!