Oops, an error
Loading. Please wait.

War Of Change tab

version 1
version 1

Whole song

Interactive

29,355 views 48 this week
3 commentsread comments
1 2 3 4 5
x 5
add to favorites
×
Save as Personal and add changes to this tab that will be seen only by you. Learn more ›
×
You can save this tab as Personal to edit and correct it or add notes. All changes will be seen only by you. Learn more »
launch autoscroll
font size
0
reset
how to read this tab
guitar tuner
edit
Autoscroll
slow
fast
+/-
esc
set tempo
stop
(I'm not guaranteeing this is 100% correct, expecially the part before the chorus. It's 
just very hard to hear the notes and it sorta sounds like they may be harmonics? Not sure 
but I think it's a decent start.)

(You can check out my youtube covers, hopefully I'll be able to upload a cover of this song soon!
http://www.youtube.com/user/McKeeC91)

Drop C

[Intro]
e|--------------------------------------------------------------------|
B|--15--15--15--15--13--13--13--13--15--15--15--15--13--13--13--16----|
G|----12--12--12--12--12--12--12--12--12--12--12--12--12--12--12--12--|
D|--------------------------------------------------------------------|
A|--------------------------------------------------------------------|
D|--------------------------------------------------------------------|

[Pre-Chorus]
e|--------------------------------------------------------------------------------------|
B|--15--11--13-------------15--11--13---------------------------------------------------|
G|----12--12--12-7-10-12-----12--12--12-7-10-12-----------------------------------------|
D|--------------------------------------------------------------------------------------|
A|--------------------------------------------------------------------------------------|
D|--------------------------------------------------------------------------------------|

[Chorus]
e|--------------------------------------------------------------------------------------|
B|--------------------------------------------------------------------------------------|
G|--------------------------------------------------------------------------------------|
D|--5-5-5-5-5-5-5-5-3-3-3-3-3-3-3-3-5-5-5-5-5-5-5-3-3-3-3-3-3-3-5-----------------------|
A|--5-5-5-5-5-5-5-5-3-3-3-3-3-3-3-3-3-3-3-3-3-3-3-1-1-1-1-1-1-3-5-----------------------|
D|--5-5-5-5-5-5-5-5-3-3-3-3-3-3-3-3---------------3-5-----------------------------------|

[Bridge]
e|--------------------------------------------------------------------------------------------|
B|--------------------------------------------------------------------------------------------|
G|--------------------------------------------------------------------------------------------|
D|--1-3-3-2-1-x-x--1-3-3-2-1-x-x--------------------------------------------------------------|
A|--1-1-3-2-1-x-x--1-1-3-2-1-x-x--------------------------------------------------------------|
D|--1---3-2-1-x-x--1---3-2-1-x-x--------------------------------------------------------------|

[Outro]
e|--------------------------------------------------------------------------------------|
B|----15-16-15----15-16-15----15-16-15-18-15-16-15--------------------------------------|
G|--12---------12----------12-----------------------------------------------------------|
D|--------------------------------------------------------------------------------------|
A|--------------------------------------------------------------------------------------|
D|--------------------------------------------------------------------------------------|


************************************

| x  Dead note

************************************

            
            
Suggest correction
Creating personal tab
Creating personal tab
You can edit any tab online and save it as your Personal.

You can edit, replace or remove any tab part or add personal notes – all changes will be seen only by you.

Personal tabs can be accessed anytime from any device, even offline.
Learn more »
comments
print report bad tab
3 comments total.
0 reply
Vincenzo_27 10 Jun 19, 2013 06:15 AM

In the outro is 15-16-15-18-15-16-15 :)

0 reply
swagster39 10 Mar 01, 2014 09:39 AM

uh i don't know if wat i do is right but i tuned the E string to drop D and just used one finger to bar the chords at the 6th, 8th, 9th, 3rd, and 2nd frets. the main chorus is just, wat i did, doing this starting at the 6th fret, then to the 8th, then 9th, then 3rd. after u hit the 3rd fret u hit all of these one time starting at the 2nd fret.

guest
You may want to rate the tab now too:
select rating
Wanna post a correction for this tab? Suggest correction