Oops, an error
Loading. Please wait.

We Are Bass Tab

version 1
version 1

Whole song

3,179 views 1 this week
4 commentsread comments
1 2 3 4 5
accurate
x 7
add to favorites
launch autoscroll
font size
0
reset
guitar tuner
Autoscroll
slow
fast
+/-
esc
set tempo
stop
Help us to improve Ultimate-Guitar.com Take our survey!
×
Author
Difficulty
Tuning
novice
B F# B E G# C#
Here's the Bass tab for one of TFK's new songs coming out in April.
It's an awesome song and I love playing it.

Remember to buy their new album, "The End is Where We Begin," coming out April, 17. 
Trust me It's their best album yet ;)



Intro
|--------------|-------|
|-3 Bar Rest---|-------|
|--------------|-------|
|--------------|--0-10-|

|----------------------------------------------------------|
|----------------------------------------------------------|
|----------------------------------------------------------|
|-0-8-7-0--0--0-0-8-7-0--0----0-8-7-0--0--0-0-8-7-0--0-10--|

Verse             Play 1st time |  Play 2nd time
|------------------------|------|--------|
|-------Repeat----------|------|---------|
|-5-3-0---------5-3-0----|---3--|--------|
|-------0--0--3--------0-|-3----|-0-10---|

|---------------------------------------------------------|
|---------------------------------------------------------|
|---------------------------------------------------------|
|-0-8-7-0--0--0-0-8-7-0--0----0-8-7-0--0--0-0-8-7-0--0-10-|

|-------------------------------------------------------------|
|-------------------------------------------------------------|
|-------------------------------------------------------------|
|--0-8-7-0--0--0-0-8-7-0--0----0-8-7-0--0--0-0-8-7-0--0-10----|


Pre-Chorus
|----------------------------------------|
|----------------------------------------|
|----------------------------------------|
|-8-8--8-8-8--8-10-10--10-11--11--11-11--|

|----------------------------------------------------------------------|
|----------------------------------------------------------------------|
|----------------------------------------------------------------------|
|--0-8-7-0--0--0-0-8-7-0--0-10----8-8-8-8-8-8-8-8-10--------10----10---|

Chorus
|---------------------------------------------------|
|---------------------------------------------------|
|---------------------------------------------------|
|-3-0----3-0-3-0----8-8-8-8-8-8-8-8-7-7-7-7-6-6-6-6-|

|--------------------------------------------------------|
|--------------------------------------------------------|
|--------------------------------------------------------|
|-3-0----3-0-3-0----8-8-8-8-8-8-8-8-10-10-10-10-10-10-6--|

Bridge
|----------------------------------------------------------|
|----------------------------------------------------------|
|----------------------------------------------------------|
|-0--3--0----0--3--0--6--5--3--0--3--0----0--3--0--6--6--6-|

|------------------------------------------------------------|
|------------------------------------------------------------|
|------------------------------------------------------------|
|-0--3--0-0---0--3--0--6--5--3--0--3--0-0---0--3--0--6--6--6-|

Outro
|---------------------------------------------------------------|
|---------------------------------------------------------------|
|---------------------------------------------------------------|
|-0--3--0--6--5--3--0--3--0--6--5--3--0--3--0--6--5--3--0--0--0-|
Suggest correction
comments
print report bad tab
4 comments total. Showing first comments.
0 reply
bassboy18 10 wrote on August 21 2012, 11:33 pm

It looks good, but is it b e a d? Or b f# b e?

0 reply
TFKrawk$ 10 wrote on February 12 2013, 10:49 am

I believe from trying to play it that it's b f# b e

0 reply
TheBassMeister 140 wrote on November 2 2013, 06:21 pm

Everything sounds good to me except the verse. It sure looks right, but no matter how I do it, the notes don't match up. Other than that, it's awesome! :D

And yes, it is Drop B, which I believe is B F# B E (The F# might actually be F). With this song, 5-String bass players can actually remain in standard because all you'll use is the B string.

guest
You may want to rate the tab now too:
select rating
Wanna post a correction for this tab? Suggest correction