Oops, an error
Loading. Please wait.

We Are Tab

version 2
version 2

Whole song

761 views 1 this week
no commentswrite comment
1 2 3 4 5
please rate
add to favorites
launch autoscroll
font size
0
reset
how to read this tab
guitar tuner
Autoscroll
slow
fast
+/-
esc
set tempo
stop
Help us to improve Ultimate-Guitar.com Take our survey!
×
Author
Difficulty
Tuning
intermediate
B F# B E G# C#
----------------------------------------------------------------------------
                          WE ARE - Thousand Foot Krutch
----------------------------------------------------------------------------
Tabbed by:messirocks10
E-mail:

Tuning:B-F#-B-F#-B-E

Heavy Disortion

INTRO
e|----------------------------------------------------|
B|----------------------------------------------------|
F#|---------------------------------------------------|
B|--5-8-7-0-0--0-5-8-7-0-0--5-8-7-0-0--0-5-8-7-0-0-10-|
F#|-5-8-7-0-0--0-5-8-7-0-0--5-8-7-0-0--0-5-8-7-0-0-10-|
B|--5-8-7-0-0--0-5-8-7-0-0--5-8-7-0-0--0-5-8-7-0-0-10-|
Repeat.

For verses, rest 4 measures, then play intro once.

****************************************************************************

PRE-CHORUS
e|-----------------------------------------------------------|
B|-----------------------------------------------------------|
F#|----------------------------------------------------------|
B|--3-3-3-3-3-3-3-3-5-5-5-5-5-5-5-5-5-8-7-0-0-0-5-8-7-0-0-10-|
F#|-3-3-3-3-3-3-3-3-5-5-5-5-5-5-5-5-5-8-7-0-0-0-5-8-7-0-0-10-|
B|--3-3-3-3-3-3-3-3-5-5-5-5-5-5-5-5-5-8-7-0-0-0-5-8-7-0-0-10-|
   [_____________________________]                          ^
               Repeat after --------------------------------^

****************************************************************************

CHORUS
e|------------------------------------------------------------------|
B|------------------------------------------------------------------|
F#|-----------------------------------------------------------------|
B|--3-0-x-x-x-x-3-0-3-0-x-x-x-x-x-x-5-5-5-5-5-5-5-5-3-3-3-3-2-2-2-2-|
F#|-3-0-x-x-x-x-3-0-3-0-x-x-x-x-x-x-5-5-5-5-5-5-5-5-3-3-3-3-2-2-2-2-|
B|--3-0-x-x-x-x-3-0-3-0-x-x-x-x-x-x-5-5-5-5-5-5-5-5-3-3-3-3-2-2-2-2-|

e|------------------------------------------------------------------|
B|------------------------------------------------------------------|
F#|-----------------------------------------------------------------|
B|--3-0-x-x-x-x-3-0-3-0-x-x-x-x-x-x-5-5-5-5-5-5-5-5-7-7-7-7-7-7-7-5-|
F#|-3-0-x-x-x-x-3-0-3-0-x-x-x-x-x-x-5-5-5-5-5-5-5-5-7-7-7-7-7-7-7-5-|
B|--3-0-x-x-x-x-3-0-3-0-x-x-x-x-x-x-5-5-5-5-5-5-5-5-7-7-7-7-7-7-7-5-|

****************************************************************************

BRIDGE
Guitar #1
e|-----------------------------------------------------------------|
B|-----------------------------------------------------------------|
F#|----------------------------------------------------------------|
B|--0-3-0--0-3-5-6-5-3-0-3-0--0-3-5-6-5-3-0-3-0--0-3-5-6-5-3-0-3-0-|
F#|-0-3-0--0-3-5-6-5-3-0-3-0--0-3-5-6-5-3-0-3-0--0-3-5-6-5-3-0-3-0-|
B|--0-3-0--0-3-5-6-5-3-0-3-0--0-3-5-6-5-3-0-3-0--0-3-5-6-5-3-0-3-0-|

e|--------------------------------------------------------------------|
B|--------------------------------------------------------------------|
F#|-------------------------------------------------------------------|
B|--0-3-5-6-5-3-0-3-0--0-3-5-6-5-3-0-3-0--0-3-5-6-5-3-3-3-3-3-3-3-3-3-|
F#|-0-3-5-6-5-3-0-3-0--0-3-5-6-5-3-0-3-0--0-3-5-6-5-3-3-3-3-3-3-3-3-3-|
B|--0-3-5-6-5-3-0-3-0--0-3-5-6-5-3-0-3-0--0-3-5-6-5-3-3-3-3-3-3-3-3-3-|

****************************************************************************

BRIDGE
Guitar #2 (in sync w/ Guitar #1)
e|-----------------------------------------------------------------------|
B|----------------------------------------7-5-6b-------------------7-7-7-|
F#|---------------------------------------7-5-6b-------------------------|
B|-----------------------------------------------------------------------|
F#|----------------------------------------------------------------------|
B|-----------------------------------------------------------------------|

e|-----------------------7-5-----|
B|--75320--3-3-3-0-2---------7-5-|
F#|------------------------------|
B|-------------------------------|
F#|------------------------------|
B|-------------------------------|

****************************************************************************

ENDING
e|-9---7-10-------------------|
B|----------0-2-3-7-5-3-------|
F#|---------0-2-3-7-5-3-------|
B|----------------------0-0-0-|
F#|---------------------0-0-0-|
B|----------------------0-0-0-|

************************************

| /   slide up
| \   slide down
| h   hammer-on
| p   pull-off
| ~   vibrato
| +   harmonic
| x   Mute note
| b   Bend
| pb  Pre-bend
| br  Bend release
| pbr Pre-bend release
| brb Bend release bend

************************************

ORDER: INTRO, VERSE, CHORUS, VERSE, CHORUSx2, BRIDGE(Guitar #1 and #2 overlapping), 
CHORUSx2, ENDING.

Love TFK, great song.
Hope you like it, God Bless!
Suggest correction
What's this?
You can suggest a correction to this tab. Community and Mods will review your correction and vote to approve or reject it.
comments
We did not receive enough feedback on this tab! Please rate:
print report bad tab
1 2 3 4 5
guest
You may want to rate the tab now too:
select rating
Please do not post tabs as comments. Select "correction" instead!