Oops, an error
Loading. Please wait.

Welcome To The Masquerade Bass Tab

version 1
version 1

Whole song

Interactive

5,772 views 1 this week
2 commentsread comments
1 2 3 4 5
accurate
x 4
add to favorites
launch autoscroll
font size
0
reset
guitar tuner
Tab Pro tools
  • play this tab
  • loop segment
  • change instrument
  • show fretboard
  • metronome
×
Best way to learn
"Welcome To The Masquerade"
Autoscroll
slow
fast
+/-
esc
set tempo
stop
Difficulty
intermediate
Artist: Thousand Foot Krutch
Song: Welcome To The Masquerade
Album: Welcome To The Masquerade


Intro Part 1:
G|-------------------------------------------------------|
D|-------4-4-4--0-0-0--5-5-4-------4-4-0-0-2-2-0-0---0---|
A|-2-2-2---------------------2-2-2-----------------4---0-|
E|-------------------------------------------------------|

Intro Part 2:
G|-----------------------------------------------------|
D|-------4-4-4--0-0-0--5-5-4-------4-4-0-0-4-4-0-0-----|
A|-2-2-2---------------------2-2-2-----------------4-4-|
E|-----------------------------------------------------|

Verse:
G|-----------------------------------------------------------|
D|-4---------5-----4---------0-----4---------5-----0-0-0-2-2-|
A|---2-2-2-2---2-2---2-2-2-2---2-2---2-2-2-2---2-2-----------|x2
E|-----------------------------------------------------------|

Pre-Chorus:
G|-------------|
D|-------------|
A|-2-1-0-------|
E|-------4-3-2-|

Chorus:
G|--------2~-----------------|
D|----5~---------0-0-2-2-----|
A|-2~--------4-4---------4-4-|x4
E|---------------------------|

Intro Part 2

Verse

Bridge 1:
G|----------------------------------------------|
D|-2-4----4-5--2-4---1-0--2-4---4-5-4--0-0-0-2-2|
A|-----2-----------2----------2-----------------|x2
E|----------------------------------------------|

Pre-Chorus

Chorus

Bridge 2 Part 1:
G|--------------------2-2-2-2-----------|
D|----------5-5-5-5---------------------|
A|-2-2-2-2------------------------------|x2
E|----------------------------2-2-2-2---|
Bridge 2 Part 2:
G|-----------------------------|
D|-----------------------------|
A|-2(x16)--------0(x16)--------|x2
E|--------3(x16)--------(2x16)-|

Pre-Chorus (no bass)

Chorus

Intro Part 2


And that's it! Enjoy!
comments
print report bad tab
2 comments total.
+2 reply
SK8nBASS wrote on December 30 2009, 10:20 pm

sorry man, it's in B... almost all the songs on this CD are, if you change it i'll change my rating!

0 reply
headbang123 wrote on December 27 2011, 12:48 pm

this is not in standard tuning...
and the bridge is total crap
otherwise good tab bro!

I want to post or [tab]
guest
You may want to rate the tab now too:
select rating
Please do not post tabs as comments. Select "correction" instead!