Oops, an error
Loading. Please wait.

When In Doubt Bass Tab

version 2
version 2

Whole song

Interactive

229 views 1 this week
no commentswrite comment
1 2 3 4 5
please rate
add to favorites
launch autoscroll
font size
0
reset
guitar tuner
Tab Pro tools
  • play this tab
  • loop segment
  • change instrument
  • show fretboard
  • metronome
×
Best way to learn
"When In Doubt"
Autoscroll
slow
fast
+/-
esc
set tempo
stop
Contributor
Difficulty
Track 4
                                  
G||-------|------|------|-------||
D||*------|------|------|------*||
A||*------|------|------|------*||
E||-------|------|------|-------||


                                         
--------------------|-------------------|
*-------------------|-------------------|
*--5----------------|-------------------|
--------------------|--5----------------|


                                          
-------------------|--------------------||
-------------------|-------------------*||
-------------------|-------------------*||
--7----------------|--3-----------------||


                                         
--------------------|-------------------|
*-------------------|-------------------|
*--5----------------|-------------------|
--------------------|--5----------------|


                                          
-------------------|--------------------||
-------------------|-------------------*||
-------------------|-------------------*||
--7----------------|--3-----------------||


                    
-------------------|
-------------------|
-------------------|
--3----------------|


                               
|-----------------------------|
|*----------------------------|
|*--5--5-5--5-5---------------|
|----------------5--5-5--5-5--|


                               
-----------------------------||
----------------------------*||
----------------------------*||
--7--7-7--7-7--3--3-3--3-3---||


                          
-------------------------|
*------------------------|
*--5-5----5--------------|
--------------5-5----5---|


                           
-------------------------||
------------------------*||
------------------------*||
--7-7----7---3-3----3----||


                                    
-----------------------------------|
*----------------------------------|
*--5-5-5-5-5-5-5-5-----------------|
-------------------5-5-5-5-5-5-5-5-|


                                     
-----------------------------------||
----------------------------------*||
----------------------------------*||
--7-7-7-7-7-7-7-7-3-3-3-3-3-3-3-3--||


                        
-----------------------|
*----------------------|
*--5--------5---5---5--|
-----------------------|


                       
----------------------|
----------------------|
----------------------|
--5--------5---5---5--|


                       
----------------------|
----------------------|
----------------------|
--7--------7---7---7--|


                         
-----------------------||
----------------------*||
----------------------*||
--3--------3---3---3---||


                      
---------------------|
*--------------------|
*--------------------|
---3------------3----|


                               
|-----------------------------|
|*----------------------------|
|*--5--5-5--5-5---------------|
|----------------5--5-5--5-5--|


                               
-----------------------------||
----------------------------*||
----------------------------*||
--7--7-7--7-7--3--3-3--3-3---||


                                         
-------------------|-------------------||
*------------------|------------------*||
*------------------|------------------*||
-------------------|-------------------||


                                    
-----------------------------------|
*----------------------------------|
*--5-5-5-5-5-5-5-5-----------------|
-------------------5-5-5-5-5-5-5-5-|


                                     
-----------------------------------||
----------------------------------*||
----------------------------------*||
--7-7-7-7-7-7-7-7-3-3-3-3-3-3-3-3--||


                                   
----------------------------------|
----------------------------------|
--5-5-5-5-5-5-5-5-----------------|
------------------5-5-5-5-5-5-5-5-|


                                   
----------------------------------|
----------------------------------|
----------------------------------|
--7-7-7-7-7-7-7-7-3-3-3-3-3-3-3-3-|


                                   
----------------------------------|
----------------------------------|
--5-5-5-5-5-5-5-5-----------------|
------------------5-5-5-5-5-5-5-5-|


                                   
----------------------------------|
----------------------------------|
----------------------------------|
--7-7-7-7-7-7-7-7-3-3-3-3-3-3-3-3-|


                         
|-----------------------|
|*----------------------|
|*--5--------5---5---5--|
|-----------------------|


                       
----------------------|
----------------------|
----------------------|
--5--------5---5---5--|


                       
----------------------|
----------------------|
----------------------|
--7--------7---7---7--|


                         
-----------------------||
----------------------*||
----------------------*||
--3--------3---3---3---||


                                        
--------------------|------------------|
--------------------|------------------|
--5-5---------------|------------------|
--------------------|------------------|


                         
|-----------------------|
|*----------------------|
|*--5--------5---5---5--|
|-----------------------|


                       
----------------------|
----------------------|
----------------------|
--5--------5---5---5--|


                       
----------------------|
----------------------|
----------------------|
--7--------7---7---7--|


                                             
-----------------------||-------------------|
----------------------*||-------------------|
----------------------*||-------------------|
--3--------3---3---3---||--3----------------|


                               
|-----------------------------|
|*----------------------------|
|*--5--5-5--5-5---------------|
|----------------5--5-5--5-5--|


                               
-----------------------------||
----------------------------*||
----------------------------*||
--7--7-7--7-7--3--3-3--3-3---||


                              
-----------------------------|
*----------------------------|
*--5--5-5--5-5---------------|
----------------5--5-5--5-5--|


                               
-----------------------------||
----------------------------*||
----------------------------*||
--7--7-7--7-7--3--3-3--3-3---||


                                         
-------------------------------|-------||
-------------------------------|-------||
-------------------------------|--5/---||
--7--7-7--7-7--3-3-3-3-3-3-3-3-|-------||


comments
We did not receive enough feedback on this tab! Please rate:
print report bad tab
1 2 3 4 5
I want to post or [tab]
guest
You may want to rate the tab now too:
select rating
Please do not post tabs as comments. Select "correction" instead!