Oops, an error
Loading. Please wait.

A New Beginning Tab

version 2
version 2

Intro

Interactive

1,560 views 6 this week
no commentswrite comment
1 2 3 4 5
3 more votes to show rating
add to favorites
launch autoscroll
font size
0
reset
how to read this tab
guitar tuner
Autoscroll
slow
fast
+/-
esc
set tempo
stop
Help us to improve Ultimate-Guitar.com Take our survey!
×
Author
Difficulty
Tuning
intermediate
C G C F A D
Clean Guitar (0:00 - 0:33)

D------------------------------8^-------------------------------------------|
A-----3h5p3-------6---6---5-6h-8^--------3h5p3-------6---6--6-5^--5h6p5-----|
F-----------2---3---3-----3--------------------2---3---3----5-5^------------|
C--0----------------------------------0---------------------------------8-7-|
G---------------------------------------------------------------------------|
C---------------------------------------------------------------------------|


D------------------------------8^---------------------------5^-3^--3h5p3----|
A-----3h5p3-------6---6---5-6h-8^--------3h5p3-------6---6--6^-5^-------6-5-|
F-----------2---3---3-----3--------------------2---3---3--------------------|
C--0----------------------------------0-------------------------------------|
G---------------------------------------------------------------------------|
C---------------------------------------------------------------------------|

Second guitar comes in (0:17 - 0:49)

D----12h13p12---12-------13----13-15-13-12--|
A-10---------10----10-11----11--------------|
F-------------------------------------------|
C-------------------------------------------|
G-------------------------------------------|
C-------------------------------------------|

D-12h13p12----12-------13-------13-12-------|
A----------10----10-11----11-13------13-----|
F-------------------------------------------|
C-------------------------------------------|
G-------------------------------------------|
C-------------------------------------------|

Distortion (0:33 - 0:49)

D----------------------------------------------------------------|
A----------------------------------------------------------------|
F----------------------------------------------------------------|
C-0-0-0-0-0-0-0-0-0-0-0-0--7--8--8-8-8-8-8-8-8-8-8-8-8-8-8-8-8-8-|
G-0-0-0-0-0-0-0-0-0-0-0-0--7--8--8-8-8-8-8-8-8-8-8-8-8-8-8-8-8-8-|
C-0-0-0-0-0-0-0-0-0-0-0-0--7--8--8-8-8-8-8-8-8-8-8-8-8-8-8-8-8-8-|

D-----------------------------------------------------------------------|
A-----------------------------------------------------------------------|
F-----------------------------------------------------------------------|
C-5-5-5-5-5-5-5-5-5-5-5-5--7--8--8-8-8-8-8-8-8-8-8-8-10-10-10-10-10-10--|
G-5-5-5-5-5-5-5-5-5-5-5-5--7--8--8-8-8-8-8-8-8-8-8-8-10-10-10-10-10-10--|
C-5-5-5-5-5-5-5-5-5-5-5-5--7--8--8-8-8-8-8-8-8-8-8-8-10-10-10-10-10-10--|

Bridge (0:49 - 1:04)

D------------------------------------------------------------------------|
A------------------------------------------------------------------------|
F------------------------------------------------------------------------|
C------------------------------------------------------------------------|
G------------------------------------------------------------------------|
C-0-0-0-0--0-0-0-1-0-0-0--0-0-0-0--0-0-0-1-0-0-0--0-0-0-0--0-0-0-1-0-0-0-|

D-------------------------------------|
A-------------------------------------|
F-------------------------------------|
C----------------------0-0-8--0-0-10~-|
G----------------------0-0-8--0-0-7/8-|
C-0-0-0-0--0-0-0-1--0--0-0-8--0-0-7-8-|
                       . .    . .

Legend
h - Hammer on
p - Pull off
. - Palm mute
^ - Up pick
/ - Slide up neck/to next note
~ - Hold note for however many (~) there are.
Suggest correction
Give kudos to tab author, rate the tab!
1 2 3 4 5
comments
print report bad tab
guest
You may want to rate the tab now too:
select rating
Wanna post a correction for this tab? Suggest correction